Agenzia Musicisti

883

Nessun Rimpianto è un pezzo degli 883 datato 1997, estratto come terzo singolo dall’album La Dura Legge Del Gol e poi in seguito riproposto nei successivi Gli Anni, Love/Life, TuttoMax e Max Live 2008.

Ne proponiamo il testo con gli accordi per chitarra e pianoforte, ed in più la tablatura.

883 Nessun Rimpianto Testo Lyrics Accordi per Chitarra Pianoforte

Do  Fa  Lam  Do  Lam  Sol  Fa

Do           Sol        Do                    Sol
tutti mi dicevano vedrai è successo  a tutti però poi
Lam                   Fa         Lam      Do         Sol            Lam
ti alzi un giorno e non ci pensi più la scorderai ti scorderai di lei
          Sol                        Do Lam     Sol        Do
solo che non va proprio cosi ore spese a guardare gli ultimi
       Lam          Mim               Fa                Mim
attimi in cui tu eri qui con me dove ho sbagliato e perché
Fa            Lam             Sol
ma poi mi son risposto che, non ho

Do      Fa         Lam      Sol
Nessun Rimpianto, Nessun Rimorso
Do         Fa         Lam      Sol
Soltanto certe volte capita che
       Do         Fa        Lam        Sol
appena prima di dormire mi sembra di sentire
          Do     Fa    Lam       Sol        Do
il tuo ricordo che mi bussa ma io non aprirò 

Do             Sol           Do                    Sol
come dicon tutti il tempo e' l' unica cura possibile
Lam                    Fa Lam           Do         Sol        Lam
solo l'orgoglio ci mette un po' un pò di  più per ritirarsi su
        Sol          Do               Lam     Sol              Do
però mi ha aiutato a chiedermi se era giusto essere trattato cosi
       Lam         Mim Fa       Mim           Fa           Lam      Sol
da un persona  che diceva di amarmi e proteggermi prima di abbandonarmi qui 

Do      Fa         Lam      Sol
Nessun Rimpianto, Nessun Rimorso
Do         Fa         Lam      Sol
Soltanto certe volte capita che
       Do         Fa        Lam        Sol
appena prima di dormire mi sembra di sentire
          Do     Fa    Lam       Sol        Do
il tuo ricordo che mi bussa ma io non aprirò   Fa7+ Do99 Fa7+ Sol7

Do      Fa         Lam      Sol
Nessun Rimpianto, Nessun Rimorso
Do         Fa         Lam      Sol
Soltanto certe volte capita che
       Do         Fa        Lam        Sol
appena prima di dormire mi sembra di sentire
          Do     Fa    Lam       Sol        Do
il tuo ricordo che mi bussa ma io non aprirò 

Do  Fa  Lam  Sol (Quattro Volte) Fa

883 Nessun Rimpianto Tablatura per Chitarra

Legenda

h = hammer-on
v = vibrato
fb = full bend
r = release
/ = slide

Solo 1

e-+----------------1-0---------------1--------------
B-+-1-3-3-1-1~--1-3-----3-1-1--1--1-----5~~---3-1-1~
G-+---------------------------2--2--2---------------
D-+-------------------------------------------------
A-+-------------------------------------------------
E-+-------------------------------------------------

-----------------1-0-------------0-----5-3-3-5-0--------
-1-3-3-1-1~--1-3-----3-1-3-1-3-1---3-3-----------3-1-1~~
--------------------------------------------------------
--------------------------------------------------------
--------------------------------------------------------
--------------------------------------------------------

Solo 2

e------------------------------------------------------------------------------
B-------------------------------/10-8vvv---------------------------------------
G-12--12-10-9-10---10-9-7-/9----/9--7vvv--------7------7----7/9----------------
D-12--12-10-9-10-------------10------------7h10---7-10---10-----10vv-----------
A------------------------------------------------------------------------------
E------------------------------------------------------------------------------

e------------------------------------------------------------------------------
B-------------8fb10-8vvv---------13-15-15fb17-15fb17r15vvv---------------------
G------7fb9r7-------------/12-14-----------------------------------------------
D-7-10-------------------------------------------------------------------------
A------------------------------------------------------------------------------
E------------------------------------------------------------------------------

e-----------------15fb17-15vvv---13-12-15-13-12-13-12----12--------------------
B----13-13----13--------------------------------------15----13-15-13vvv--------
G-14-------14------------------------------------------------------------------
D------------------------------------------------------------------------------
A------------------------------------------------------------------------------
E------------------------------------------------------------------------------

e------------------------------------------------------------------------------
B-13----13-15fb17-15vv--13-15-13-12-12/13vvvvv---------------------------------
G----14------------------------------------------------------------------------
D--------------------------------------------------15-14-12-10vvvvvv-----------
A------------------------------------------------------------------------------
E------------------------------------------------------------------------------

Ending:

e-+--1-1-0---0
B-+--------3-1
G-+----------0
D-+----------2
A-+----------3
E-+----------0
Agenzia Musicisti

Articoli correlati

L'autore del post

Foto dell'autore
Alberto Moneti 28 anni; pianista dall'età di 8 anni, organista, percussionista, ha conseguito la licenza in teoria e solfeggio al Conservatorio Cherubini di Firenze. Webmaster, operatore di marketing online e SEO. Twitter @albertomoneti