What’s My Age Again è il primo singolo del terzo album studio targato Blink 182, Enema Of The State. Pubblicata nel 1999, il titolo previsto era “Peter Pan Complex”, ma venne poi cambiato con l’ultima riga del ritornello. What’s My Age Again è stata il miglior successo dei Blink 182 in classifica, raggiungendo la 19esima posizione della Mainstream Rock Chart Americana.

Testo e accordi + tablatura di intro ed intermezzo (il resto sono power chords).

Blink 182 What’s My Age Again Testo Accordi Spartito Chitarra Guitar Tab Chords

Intro
E|----------------------------------|
B|----11------11------11-------11---|
G|--11--11--11--11--11--11---11--11-| X7
D|-9--------------------------------|
A|---------9------------------------|
E|-----------------9-------11-------|

E|-----------------------------------|
B|-----11-------11------11------11---|
G|---11--11---11--11--11--11--11--11-| X1
D|-----------------------------------|
A|-----------------------------------|
E|-11-------11-------9-------9-------|

F#          C#
I took her out
G#       A#m
It was a Friday night
F#          C#
I wore cologne
G#       A#m
To get the feeling right
F#          C#
We started making out
G#         A#m
And she took off my pants
F#          C#            G#
But then I turned on the TV

F#                                    D#        G#
And that's about the time she walked away from me
A#m     F#                   D#        G#
Nobody likes you when you're twenty-three
A#m           F#              D# G#
And are still more amused by tv shows
A#m               F#
What the hell is ADD?
D#                      G#
My friends say I should act my age
A#m
What's my age again?
G#                   F#
What's my age again?

F#          C#
Then later on
G#       A#m
On the drive home
F#          C#
I called her mom
G#       A#m
From a payphone
F#          C#
I said I was the cops
G#       A#m
And your husband's in jail
F#              C#      G#
The state looks down on sodomy
F#                                    D#        G#
And that's about the time that bitch hung up on me
A#m     F#                   D#        G#
Nobody likes you when you're twenty-three
A#m           F#              D#        G#
And are still more amused by prank phone calls
A#m               F#
What the hell is call ID?
D#                      G#
My friends say I should act my age
A#m
What's my age again?
G#                    A#m
What's my age again?

Interlude
E|-----------------------------------|
B|---11-------11------11-------11----|
G|-8----11-------11------11-------11-| X1
D|---------11-------9-------11-------|
A|-----------------------------------|
E|-----------------------------------|

E|-----------------------------------------|
B|-----------------------------------------|
G|-----------------------------------------| X1
D|-------8h9-------8h9-------8h9-------8h9-|
A|-9-9-9-----9-9-9-----9-9-9-----9-9-9-----|
E|-----------------------------------------|

E|--------------------------|
B|--------------------------|
G|-------11----------11-----| X3
D|---8-------8---8--------8-|
A|-9---9-------9---9----9---|
E|--------------------------|

E|----------------------|
B|----------------------|
G|-------11----------11-| X1
D|---8-------8---8------|
A|-9---9-------9---9----|
E|----------------------|

And that's about the time she walked away from me
Nobody likes you when you're twenty-three
And you still act like you're in freshman year
What the hell is wrong with me?
My friends say I should act my age
What's my age again?
And that's about the time that she broke up with me
Noone should take themselves so seriously
With many years ahead to fall in line
Why would you wish that on me?
I never wanna act my age
What's my age again?
What's my age again?

Solo:  G	D	Em	C     3x

G	D	Em  	D	  C
What's my age again?
Cercasi Programmatore Javascript

Articoli correlati

  • Adam’s SongAdam’s Song Adam's Song è una canzone di Enema Of The State (2000), il terzo album dei Blink 182. Rappresenta uno dei rari casi in cui le tematiche discusse nei brani del gruppo si fanno […]
  • All The Small ThingsAll The Small Things Blink 182 All The Small Things Guitar Chords Accordi INTRO: G F C F E G A F C F E G A F C G F all the small things G C true care […]
  • The Rock ShowThe Rock Show Blink 182 The Rock Show Guitar Chords Lyrics Accordi A D E A D E A verse 1 A Hanging out behind the club at the weekends D E Acting stupid, […]
  • Sono Solo CanzonetteSono Solo Canzonette Sono Solo Canzonette è il brano che dà il titolo all'omonimo album di Edoardo Bennato del 1980, divenuto uno dei più importanti e di successo della storia della musica leggera […]

L'autore del post

Foto dell'autore
Alberto Moneti 31 anni; pianista dall'età di 8 anni, organista, percussionista, ha conseguito la licenza in teoria e solfeggio al Conservatorio Cherubini di Firenze. Webmaster, operatore di marketing online e SEO. Twitter @albertomoneti