Violet Hill è un brano rock a tempo di marcia, composto ed inciso dai Coldplay nel 2008 e poi rilasciato come primo singolo estratto dall’album Viva La Vida Or Death And All His Friends. E’ la prima canzone di protesta del gruppo ed ha ricevuto numerose nomination importanti quali quella ai Q Awards per la miglior traccia Rock o quelle ai Grammy per la miglior canzone Rock e la miglior performance Rock; ad esse si aggiunge quella agli MTV Awards per i migliori effetti speciali.

Testo, accordi e tablatura per chitarra.

Violet Hill Chords Accordi Tablatura per Chitarra Lyrics

VERSE 1:
      C#m
Was a long and dark December
                    C#m7
From the rooftops I remember
          A   Asus2    F#m   F#5  F5  E5  Eb5(strum quickly)
There was snow, white snow
  C#m
Clearly I remember from the windows
          C#m7               A       Asus2
They were watching while we froze...
        F#m        F#5  F5  E5  Eb5
Down below 

CHORUS:
          A
When the future's architectured
     B                     C#m
By a carnival of idiots on show
                 B
You'd better lie low
G#m     A   G#m  E        C#m B6  C#m
If you love me, won’t you let me know?

VERSE 2:
      C#m
Was a long and dark December
                       C#m7
When the banks became cathedrals
        A  Asus2      F#m     F#5  F5  E5  Eb5
And the fox    became God
 C#m
Priest clutched onto bibles
                          C#m7
Hollowed out to fit their rifles
         A   Asus2      F#m    F#5  F5  E5  Eb5
And the cross was held aloft.

CHORUS:
A
Bury me in armour
         B
When I’m dead and hit the ground
              C#m           B
My nerves are poles that unfroze
    G#m     A   G#m  E        C#m B6  C#m
And if you love me, won’t you let me know?

GUITAR SOLO:

     C#m                                 C#sus2
E||----------------------------|-----------------------------|
B||----------------------------|-----------------------------|
G||----------------------------|-----------------------------|
D||--2-1---2-------------------|--2-1---2--------------------|
A||------4-------2-----4-------|------4-------2-2----4-------|
E||-----------4-----4-----2----|-----------4------4-----2----|

  A         Asus2               F#m              F#5  F5 E5 Eb5
|---------------------------|----------------------------------|
|---------------------------|----------------------------------|
|---------------------------|--------------------11--10--9--8--|
|--2-1---2------------------|--2-1---2-----------11--10--9--8--|
|------4-------2-2----4-----|------4-------2-----9---8---7--6--|
|-----------4------4-----2--|-----------4-----4----------------|
Repeat two times

CHORUS:
        A
I don’t wanna be a soldier
        B
who the captain of some sinking ship
      C#m
would stow
    B
far below...
    E/G#    A   G#m  E        C#m    B6     C#m
So, if you love me, why’d you let me go?

OUTRO:
(C#m)     E    A        E     G#m      A
I took my love down to Violet Hill
        C#m     G#m   A
There we sat    in    snow
A   B    C#m  F#m     E         G#m
All that time she was silenced still
    G#m    A    G#m  E        C#m  B   C#m     A
So, if you love me, won’t you let  me  know?
G#m    A    G#m  E        C#m  B  C#m
If you love me, won’t you let  me know?

[Coldplay]

Articoli correlati

L'autore del post

Foto dell'autore
Alberto Moneti 31 anni; pianista dall'età di 8 anni, organista, percussionista, ha conseguito la licenza in teoria e solfeggio al Conservatorio Cherubini di Firenze. Webmaster, operatore di marketing online e SEO. Twitter @albertomoneti