Love Me Two Times è un brano composto ed inciso dai Doors nel 1967 con l’album Strange Days, e da esso rilasciato come secondo singolo.
Nel 1983 è apparsa su cd (dal titolo Alive, She Cried) una versione live con un assolo di tastiera piuttosto differente dall’originale, sia nelle note e sia per il fatto che stavolta veniva eseguito con un organo piuttosto che da un clavicordo elettrico (come nell’incisione originale).
Love Me Two Times è stato reinterpretato da artisti quali gli Aerosmith (nel 1990, la cui versione è inclusa nella soundtrack del film “Air America”, con Mel Gibson) e Joan Jett.

Il testo con gli accordi e la tablatura per chitarra.

Accordi per Chitarra Guitar Chords Testo Lyrics

main riff:

 --------------------------------------
 --------------------------------------
 ----------------------0~1-------0~1---
 ----0---2---0-2-----------------------
 --2---2---0---------------------------
 -----------------0-0--------0-0-----0-

 E7
 Love me two times baby

 Love me twice today

                   A7
 Love me two times girl
 	   E7
 I'm goin' away
                    D7
 Love me two times girl
                                 C7
 One for tomorrow, one just for today
  G           D        C7  B7     E7*
 Love me two times I'm     goin' away

 Love me one time
 Could not speak
 Love me one time
 Yeah, my knees got weak

 Love me two times girl
 Last me all through the week
 Love me two times I'm goin' away

 *at the end - where this chord is accented - play E79 (0 7 6 7 8 x)

Tablatura Guitar Tab

Intro :
   E	   (first time only)
e----------------------------------------------------|
b----------------------------------------------------|
g------------------------------0t1---------0t1-------|
d-----0-----2-----0--2-------------------------------|
a--2-----2-----2(0)------2--2--------2--2------------|
e------------------------0--0--------------------0---|

Change to A     (back to E) Change to D7 :
e---------5---------------|------------------2---2-----|
b---5-----------8vvvv-----|------3---------1---1-------|
g---6--6-----6------------|----2---2-----2---------2---|
d-------------------------|--0---------0---------------|
a-------------------------|----------------------------|
e-------------------------|----------------------------|
				       C7	       G
e--------------------------------------3--3--3--3--3----------|
b--------------------------------------5--5--5--5--5---3--3---|
g-------------------7b9--7--5vvv-------3--3--3--3--3---4--4---|
d--------------------------------------5--5--5--5--5---5--5---|
a--------------------------------------3--3--3--3--3---5--5---|
e-------------------------------------------------------------|
  One for tomorrow, one  just for today

    D7     C7    B7     E			E7#9
e------------------------------------------------------------------------|
b---7--7--\5--5--4---4-----------------------|--8-8-8-8-8-8-8-8-8-8-8-8--|
g---5--5--\3--3--2---2--1--------------------|--7-7-7-7-7-7-7-7-7-7-7-7--|
d---7--7--\5--5--4---4--0--2----0---2---0-2--|--6-6-6-6-6-6-6-6-6-6-6-6--|
a-----------------------2--2--2---2---2------|--7-7-7-7-7-7-7-7-7-7-7-7--|
e-----------------------0--------------------|---------------------------|

(After 2nd Chorus)
   G	  D7	  C7	 B7	E
e----------------------------------------------------|
b--3--3---7--7---\5--5---4---4-----------------------|
g--4--4---5--5---\3--3---2---2-----------------------|
d--5--5---7--7---\5--5---4---4----2---0-2---2---0-2--|
a--5--5-------------------------2---2-----2---2------|
e----------------------------------------------------|

Keyboard Solo :
   E
e--0--3p0--5p0--7--5--\3--3-0--5p0--7p0--/10--7--5---0--5--7--5--|
b----------------------------------------------------------------|
g----------------------------------------------------------------|
d----------------------------------------------------------------|
a----------------------------------------------------------------|
e----------------------------------------------------------------|
				      A7
e--3--5--3---5p0--7p0--/10p0--7--0--|---0--10p0--7p0--5--3--5-...-|
b-----------------------------------|-----------------------------|
g-----------------------------------|-----------------------------|
d-----------------------------------|-----------------------------|
a-----------------------------------|-----------------------------|
e-----------------------------------|-----------------------------|

Articoli correlati

L'autore del post

Foto dell'autore
Alberto Moneti 31 anni; pianista dall'età di 8 anni, organista, percussionista, ha conseguito la licenza in teoria e solfeggio al Conservatorio Cherubini di Firenze. Webmaster, operatore di marketing online e SEO. Twitter @albertomoneti