The End è l’undicesima ed ultima traccia dell’album The Doors, pubblicato dai Doors nel 1967. La canzone si struttura quasi interamente su di un cupo re minore, in un alternarsi di crescendo e diminuendo ben scanditi dalla magistrale traccia di batteria, mentre l’organo insiste perennemente su di un’aria che per certi versi ricorda la Marcia Funebre di Chopin. Il crescendo finale è famoso in quanto riproduzione di un vero e proprio climax sessuale di sapore edipico, lanciato dai versi “father” e “mother”.
E’ stata inclusa da Rolling Stone tra le migliori 500 canzoni di tutti i tempi.

The Doors The End Testo Accordi Tablatura Chitarra Guitar Chords Tab

*N.B. Drop D tuning (E B G D A D)

Intro

e----------------------------------------------------------------|
B--3------------------3-2h3----3-2h3-----3-2-3s5-5h6p5-3-3---3---|
G--2---------------------------------2---------------------2-----|
D--0-------------0----------0----------0-----------------------0-|
A--0-------------------------------------------------------------|
D--0---------------0----------0----------------------------------|

e---------------------------------------------------------|
B-2h3p2p0-3---------------------3s5-5h6p5p3---3-2h3-----3-|
G-----------2---------------0-2---------------------2-----|
D-------------0-----0h4p0-4-----------------0---------0---|
A---------------0h4---------------------------------------|
D---------------------------------------------------------|

e-----------------------------------------------------------|
B---------3-----------3-----2h3-3s5-5-5s6-3---5h6p5p3---3---|
G-----------------------------------------------------------|
D-----0-----0-----------0-0-----------------0---------0---0-|
A-0h4-------------0-----------------------------------------|
D-------0-----0h4---0---------------------------------------|

e-------------------------------------------------------|
B-2h3---3-------------------3-3---2h3---3-2h3---3-2h3---|
G-------------------------------------2-------2-------2-|
D-----0-------0-----------------0-----------------------|
A---------0h4-----------0-------------------------------|
D---------------0---0h4---0-----------------------------|

C         Dm
e-----------------------------------|
B------------------3-2h3---3----3---|
G-------0----------------2--------2-|
D---------------0-------------------|
A-0-2-3---3-2-0---------------------|
D-----------------------------------|

Dm               C        Dm
this is the end beatiful friend
this is the end my only friend the end

C     G     Dm                C             G                   Dm
of elabrate plans the end of everything    that    stands the end
C     G         Dm                   C                          Dm
no safety or suprise the end ill never look into your eyes again
C                 Dm      G7           Dm
can you picture what will be so limitless and free
C             Dm            G         Dm         C        Dm
desprately in need of some strangers hand in a deperate land

solo
e------------------------------------------------------------|
B-3----3-3-3s5-5s7-7s8-8s10-10s8-8s10b-10s11-11s12-11-11s10--|
G-2----2-2---------------------------------------------------|
D-0----0-0---------------------------------------------------|
A-0----0-0---------------------------------------------------|
D-0----------------------------------------------------------|

e-------------------------------------------------------------|
B-10s12-12s14-12-10-10s8-7-8s7-10s8-8s7-7-5----5----5s3-3---3-|
G--------------------------------------------5b6r5--------2---|
D-------------------------------------------------------------|
A-------------------------------------------------------------|
D-------------------------------------------------------------|

Dm
lost in a roman wilderness of pain
and all the children are insane
waiting for the summer rain
theres danger on the edge of town
ride the kings highway
weird scenes inside the gold mine
ride the kings highway west baby
ride the snake ride the snake
to the lake the ancient lake
the snake is long seven miles
ride the snake hes old and his skin is cold
the west is the best the west is the best
get here and well do the rest
the blue bus is calling us
the blue bus is calling us
driver where you taking us

(spoken)
the killer awoke before dawn
he put his boots on
he took a face from the ancient gallery
and he walked on down the hall
he went to the room were his sister lived
then he paid a visit to his brother
and then he walked on down the hall
and he came to a door
he looked inside
Father yes son
i want to kill you
mother i want to

come on baby take a chance with us
and meet me at the back of the blue bus

this is the end beatiful friend
this is the end my only friend the end
it hurts to set you free youll never follow me
the end of laughter and soft lies
the end of nights we tried to die
this is the end

[The Doors]

Articoli correlati

  • Light My FireLight My Fire 7 minuti di pura psichedelia: Light My Fire rappresenta il lato più oscuro dei Doors e del loro rock da acido. Ne esistono 3 versioni, differenti per durata: la lunga versione […]
  • Riders On The StormRiders On The Storm Riders On The Storm è una canzone dei Doors del 1971, pubblicata col loro album L.A. Woman e, a detta del chitarrista Robby Krieger, ispirata dalla popolare canzone cowboy "Ghost […]
  • Love Me Two TimesLove Me Two Times Love Me Two Times è un brano composto ed inciso dai Doors nel 1967 con l'album Strange Days, e da esso rilasciato come secondo singolo. Nel 1983 è apparsa su cd (dal titolo […]
  • People Are StrangePeople Are Strange People Are Strange è un brano di Strange Days, album del 1967 dei Doors: sebbene creditato a tutto il gruppo, gli autori sono Jim Morrison ed il chitarrista Robby Krieger, e fu […]
  • Break On ThroughBreak On Through Break On Through è stato il primo singolo lanciato dai Doors: estratto dal loro album d'esordio (The Doors, 1967), non ha avuto il successo aspettato, raggiungendo a malapena un […]

L'autore del post

Foto dell'autore
Alberto Moneti 31 anni; pianista dall'età di 8 anni, organista, percussionista, ha conseguito la licenza in teoria musicale e solfeggio al Conservatorio Cherubini di Firenze. Fondatore di Accordiespartiti.it, operatore di marketing online e SEO.