Drunken Lullabies è la traccia d’apertura e title-track dell’omonimo album dei Flogging Molly, pubblicato nel 2002. Ne è stato rilasciato il singolo e prodotto il videoclip, entrando nell Bilboard Hot200 americana. La canzone poi è stata inclusa nella compliation Rock Against Bush Vol. 2 ed usata come colonna sonora del videogioco Tony Hawk’s Pro Skater 4.

Testo, accordi e tablatura (con trascrizione per chitarra della parte di banjo) di Drunken Lullabies.

Flogging Molly Drunken Lullabies Tablatura Chitarra Guitar Tab

Guitar tab for banjo:

e|------------------|---------0-----3-2-|---------------------|
B|------------------|-3-3-3-3---3-------|-5-5-5-5-3-5-3-------|
G|----------------4-|-------------4-----|---------------4---4-|
D|--------------5---|-------------------|-----------------5---|
A|------------------|-------------------|---------------------|
E|------------------|-------------------|---------------------|

e|-------------------|--------------------|---------0-----3-2-|
B|-3-3-3-3-5-3-------|--------------------|-3-3-3-3---3-------|
G|-------------4-5-4-|-2-2-2-2-2-4-2----4-|-------------4-----|
D|-------------------|----------------5---|-------------------|
A|-------------------|--------------------|-------------------|
E|-------------------|--------------------|-------------------|

e|---------------------|---------------------|----------------|
B|-5-5-5-5-3-5-3-------|-3-3-3---------------|----------------|
G|---------------4---4-|-------5-4-2-2-2-4-2-|-0-0-0-0-0-2-0--|
D|-----------------5---|---------------------|----------------|
A|---------------------|---------------------|----------------|
E|---------------------|---------------------|----------------|

Flogging Molly Drunken Lullabies Testo Lyrics Accordi Chords

Verse:
G
Must it take a life for hateful eyes
Em
To glisten once again
C
Five hundred years like Gelignite
Em                   D
Have blown us all to hell
G
What savior rests while on his cross we die
Em
Forgotten freedom burns
C
Has the Shepard led his lambs astray
Em                   D
to the bigot and the gun

C                               G
Must it take a life for hateful eyes
C                D
To glisten once again
G        C            Em
Cause we find ourselves in the same old mess
G       D    G
Singin' drunken lullabies

G
I watch and stare as Rosin`s eyes
Em
Turn a darker shade of red
C
And the bullet with this sniper lie
Em                      D
In their bloody gutless cell
G
Must we starve on crumbs from long ago
Em
Through these bars of men made steel
C
Is it a great or little thing we fought
Em                              D
Knelt the conscience blessed to kill

C                       G
Must it take a life for hateful eyes
C                D
To glisten once again
G       C             Em
Cause we find ourselves in the same old mess
G       D    G
Singin' drunken lullabies

C              D         G
Ah, but maybe it`s the way we're taught
C              D      G
Or maybe it`s the way we fought
C           D             G        C
But a smile never grins without tears to begin
C         D          G
For each kiss is a cry we all lost
C               G
Though nothing left to gain
C                      D
But for the banshee that stole the grave
G       C             Em
Cause we find ourselves in the same old mess
G       D    G
Singin' drunken lullabies

G
I sit in and dwell on faces past
Em
Like memories seem to fade
C
No colour left but black and white
Em                     D
And soon will all turn grey
G
But may these shadows rise to walk again
Em
With lessons truly learnt
C
When the blossom flowers in each our hearts
Em                     D
Shall beat a new found flame

C                       G
Must it take a life for hateful eyes
C                D
To glisten once again
G       C             Em
Cause we find ourselves in the same old mess
G       D    G
Singin' drunken lullabies
G       C             Em
Cause we find ourselves in the same old mess
G       D    G
Singin' drunken lullabies
G       D    G
Singin' drunken lullabies

[Flogging Molly]

Articoli correlati

  • Whistles The WindWhistles The Wind Whistles The Wind è una ballata in stile folk dei Flogging Molly, incisa come quinta traccia del loro album del 2004 Within A Mile Of Home. L'album ha raggiunto la vetta della […]
  • If I Ever Leave This World AliveIf I Ever Leave This World Alive If I Ever Leave This World Alive è una delle canzoni di spicco di Drunken Lullabies (2002), uno degli album di maggior successo dei Flogging Molly. E' la quarta traccia del […]
  • How To Save A LifeHow To Save A Life How To Save A Life è un brano di successo dei The Fray, uscito nel 2007 con l'omonimo album. Ha ottenuto un terzo posto nella Hot 100 americana ed un quarto in quella inglese, […]
  • Rockin’ In The Free WorldRockin’ In The Free World Rockin' In The Free World è contemporaneamente la prima e l'ultima traccia dell'album Freedom, composto ed inciso nel 1989 da Neil Young: dapprima la versione acustica, in fondo […]
  • Un Disco All’Anno: 2007Un Disco All’Anno: 2007 The National - Boxer Lo stile chitarristico e le ritmiche che hanno contraddistinto band ben più “selvagge” negli anni passati, li ritroviamo anche in questo album, […]

L'autore del post

Foto dell'autore
Alberto Moneti 31 anni; pianista dall'età di 8 anni, organista, percussionista, ha conseguito la licenza in teoria musicale e solfeggio al Conservatorio Cherubini di Firenze. Fondatore di Accordiespartiti.it, operatore di marketing online e SEO.