Green Day Minority

|---------------------------0-------------|
|-------1---------3-----1-----1-------1---|
|---0-----0---0-----0-----2------------0-|
|-----2---------0-----3---------0h2-------|
|-3---------------------------------3-----|
|-----------3-----------------------------|

|-----------------------------------------|
|-------1---------3-----------------------|
|---0-----0---0-----0--2-0---------------|
|-----2---------0------3-2-0-2------------|
|-3--------------------------3------------|
|-----------3-----------------------------|

 C      F      G      F
 I want to be the minority
 C      F      G      F
I don't need your authority
 C      F      G      F
Down with the moral majority
 C      F      G      F
'Cause I want to be the minority
C         G           F         G
I pledge allegiance to the underworld
C         G           F         G
One nation under dog there of which I stand alone
C           G             F             G
A face in the crowd unsung, against the mold
C              G             F            C
Without a doubt, singled out, the only way I know

 C      F      G      F
 I want to be the minority
 C      F      G      F
I don't need your authority
 C      F      G      F
Down with the moral majority
 C      F      G      F
'Cause I want to be the minority
Am    E      F      C
Stepped out of the line
Am      E        F        G
Like a sheep runs from the herd
Am    E      F    C
Marching out of time
Am           F            G
To my own beat now The only way I know

C           G             F           G
 One light, one mind, flashing in the dark
C           G             F           G
Blinded by the silence of a thousand broken hearts
C           G             F           G
For crying out loud, she screamed unto me
C             G               F             C
A free for all, fuck them all, you are your own sight

 C      F      G      F
 I want to be the minority
 C      F      G      F
I don't need your authority
 C      F      G      F
Down with the moral majority
 C      F      G      F
'Cause I want to be the minority

|---------------------------0-------------|
|-------1---------3-----1-----1-------1---|
|---0-----0---0-----0-----2-------------0-|
|-----2---------0-----3---------0h2-------|
|-3---------------------------------3-----|
|-----------3-----------------------------|

|-----------------------------------------|
|-------1---------3-----------------------|
|---0-----0---0-----0--2-0----------------|
|-----2---------0------3-2-0-2------------|
|-3--------------------------3------------|
|-----------3-----------------------------|

Green Day guitar tabs

Articoli correlati

L'autore del post

Foto dell'autore
Alberto Moneti 31 anni; pianista dall'età di 8 anni, organista, percussionista, ha conseguito la licenza in teoria e solfeggio al Conservatorio Cherubini di Firenze. Webmaster, operatore di marketing online e SEO. Twitter @albertomoneti