Guns n’ Roses Knockin’ On Heaven’s Door Chords Tab Accordi Testo

Intro:
G5 D C
G5 D C

G5        D                    Am
    Mamma take this badge from me
G5          D         C
   I can't use it anymore
G5               D                 Am
   It's getting dark, too dark to see
G5                  D                    C
   Feels like I'm knockin' on heaven's door

G5                 D5                   C5
   Knock, knock, knockin' on heaven's door... Hey, hey, hey, hey, yeah
G5                 D5                   C5
   Knock, knock, knockin' on heaven's door
G5                   D5                   C5
Ooh, knock, knock, knockin' on heaven's door... Ooh yeah
G5                 D5                   C5
   Knock, knock, knockin' on heaven's door... Hey, hey, hey, hey, yeah

G5    D                  Am7
 Mama put my guns in the ground
G5       D             C
 I can't shoot them anymore
G5               D               Am7
 That cold black cloud is comin' down
G5              D                    C
 Feels like I'm knockin' on heaven's door


First Guitar Solo
solo 1
e--------------------------------------------------------------------|
b---------------------15---------------------------------------------|
g--12--14--12--14----------14--12--12--------------------------------|
d--------------------------------------------------------------------|
a--------------------------------------------------------------------|
e--------------------------------------------------------------------|

e--------------------------------------------------------------------|
b--15/17-----15------13--12--13---------------13--12----13--12-------|
g---------------------------------------------------------------14---|
d--------------------------------------------------------------------|
a--------------------------------------------------------------------|
e--------------------------------------------------------------------|

e----------------15--17--17---------17-------15----------------------|
b-12-----15/17-------------------------------------------------------|
g--------------------------------------------------------------------|
d--------------------------------------------------------------------|
a--------------------------------------------------------------------|
e--------------------------------------------------------------------|

e--20---19---20--19--20--20----20------------------------------------|
b-----------------------------------17-------------------------------|
g--------------------------------------------19----------------------|
d----------------------------------------------------19--------------|
a--------------------------------------------------------------------|
e--------------------------------------------------------------------|

Final Solo

solo 2

e--------------------------------------------------------------------|
b--19b-19--17--19--17--17-20--17---20---17---15------17--15--17------|
g--------------------------------------------------------------------|
d------------------------------------------------17------------------|
a--------------------------------------------------------------------|
e--------------------------------------------------------------------|


e------------------------------------------------16-----18--18--16--|
b---------------15---17----------------------13-----16--------------|
g-----------------------------------------13------------------------|
d--19--17--19--------------19--19--17-------------------------------|
a-------------------------------------------------------------------|
e-------------------------------------------------------------------|

e--16--18--16--16--20--19-20-22b-20-19-20-22b-20-19-20-22b-22b-22b--|
b-------------------------------------------------------------------|
g-------------------------------------------------------------------|
d-------------------------------------------------------------------|
a-------------------------------------------------------------------|
e-------------------------------------------------------------------|

e-20-22b------------------------------------------------------------|
b---------20-22-20-22-22b-20-22-20-20-20-19-17-19-17-17--20-17-17---|
g-------------------------------------------------------------------|
d-------------------------------------------------------------------|
a-------------------------------------------------------------------|
e-------------------------------------------------------------------|

e-------------------------------------------------------------------|
b---20-17--17-15-12-------------------------------------------------|
g--------------------12--11--11--9-7--5/4---------------------------|
d-------------------------------------------------------------------|
a-------------------------------------------------------------------|
e-------------------------------------------------------------------|

Articoli correlati

L'autore del post

Foto dell'autore
Alberto Moneti 31 anni; pianista dall'età di 8 anni, organista, percussionista, ha conseguito la licenza in teoria e solfeggio al Conservatorio Cherubini di Firenze. Webmaster, operatore di marketing online e SEO. Twitter @albertomoneti