E’ il grande successo dei Jet, primo singolo estratto da Get Born (2003), che ha lanciato la band nel palcoscenico del rock mondiale. Are You Gonna Be My Girl non è una canzone originale, anzi è stata più volte criticata per la sua somiglianza a Lust Of Life di Iggy Pop e per certi versi anche a Screwdriver, dei White Stripes. Ciò nonostante è una canzone che convince, molto diretta, orecchiabile e anche divertente da suonare.

Jet Are You Gonna Be My Girl Accordi Chitarra Tablatura Testo Guitar Chords Tab

Bass intro

    G---------------------------------------------------|
    D---------------------------------------------------|
    A----------3----------------------3--3-5^-5^-3------|
    E-555-555-3--555-555-3-0-555-555-3--5----------5-3-5|

Guitar
    e-----------------|
    B-----------------|
    G--5-7^-7^-5------|
    D-7----------7-5-7|
    A-----------------|
    E-----------------|

  Main

    e----------------------------------------------------------|
    B----------------------------------------------------------|
    G---------------------------------------5-7^-7^-5----------|
    D-------------------------------------7----------7-5-7-5---|
    A-7777775-10-7777775-10-7777775-10------------------------7|
    E-5555553--8-5555553--8-5555553--8------------------------5|

Verse

I said 1 2 3, tell ya had to come with me
						    A
coz ya look so fine and i really wanna make ya mine
						A
I said ya look so fine and I really wanna make ya mine

I said 4 5 6, cmon and get your kicks
			                          A
now ya dont need money when ya look like that do ya honey?

  Rit.

    e----------------------------------------------|
    B----------------------------------------------|
    G----------------------------------------------|
    D----------------------------------------------|x2
    A-7777777-10101010101010-12121212121212-7777777|
    E-55555555-8888888888888-10101010101010-5555555|

A
Well I could see
C
You home with me
D				  A
But you were with another man yeah
A			  C
I know we aint got much to say
D			   A
Before I let you get away
 D D D    F* F*

I said are you gonna be my girl?

Articoli correlati

L'autore del post

Foto dell'autore
Alberto Moneti 31 anni; pianista dall'età di 8 anni, organista, percussionista, ha conseguito la licenza in teoria e solfeggio al Conservatorio Cherubini di Firenze. Webmaster, operatore di marketing online e SEO. Twitter @albertomoneti