She’s A Genius è il primo singolo rilasciato dal terzo album dei Jet Shaka Rock (2009). Ha ottenuto un ottimo successo in Australia (patria del gruppo), dove è riuscito a vendere ben 35 mila copie venendo certificato disco d’oro.
E’ stato usato in un episodio di NCIS ed inserito nei videogame musicali Tap Tap Revenge 2 e Rock Band in veste di contenuto scaricabile.

Testo, accordi e tablatura per chitarra.

She’s A Genius Testo Accordi Tablatura per Chitarra Guitar Tab

Intro:
E E E A (X4)

e---------------------------|-----------------------------|
B---------------------------|-----------------------------|
G---------------------------|-----------------------------|
D---------------------------|-----------------------------|
A---7-7-----7-5-7-7---------|-----7-7-----7-5-7-7---------|
E-------0-0---------0-3-0-5-|--------0-0---------0-3-0-5--|

e---------------------------|-----------------------------|
B---------------------------|-----------------------------|
G---------------------------|-----------------------------|
D---------------------------|-----------------------------|
A---7-7-----7-5-7-7---------|-----7-7-----7-5-7-7---------|
E-------0-0---------0-3-0-5-|--------0-0---------0-3-0-5--|

Verse 1:
E            E       A      A
My girl is ready to take control
           A   A   E    E
She just blows my mind
      E     E           A   A    A    A      E    E
She only listens to the radio to see who's alive
Yeah!

e---------------------------|
B---------------------------|
G------------------------7--|
D---------------------5--7--|
A---7-7-----7-5-7-7---5--5--|
E-------0-0---------0-3-----|

No singing:
E E E A

Verse 2:
     E       E       A      A
She waits up scan of gettin on
            A  A    E    E
She don't feel no shame
      E       E     A      A
She knows so many pretty boys
             A   A   E    E
but they're all the same

Bridge 1:
         Em
They say hey now girl
tell me why do you do
                Am
She say's I'm nothing but I'm dead so that's more than you

Chorus:
C               D
That girl's a genius
    E
Who o o o o ohhh
C               D
I think she's serious
    Bm <--(unsure about this one)
Who o o o o ohhh

e---------------------------|-----------------------------|
B---------------------------|-----------------------------|
G---------------------------|-----------------------------|
D---------------------------|-----------------------------|
A---7-7-----7-5-7-7---------|-----7-7-----7-5-7-7---------|
E-------0-0---------0-3-0-5-|--------0-0---------0-3-0-5--|

Verse 3:
If what you know is who you are
then she's anything
You don't need an education to know the class that you're in

Bridge 2:
They say they hate that girl till now
why do you do
She say's I'm nothing but I'm damn sure more than you

e-----------------------------|
B-----------------------------|
G-----------------------------|
D---9-----5-5------7----------|
A---9-----5-5------7----------|
E---7-----3-3------5----------|

Bridge 3: (after solo)
Hey there boy come over and sit
Love is when you wanna kiss and you get bit

[Jet]

Articoli correlati

L'autore del post

Foto dell'autore
Alberto Moneti 31 anni; pianista dall'età di 8 anni, organista, percussionista, ha conseguito la licenza in teoria e solfeggio al Conservatorio Cherubini di Firenze. Webmaster, operatore di marketing online e SEO. Twitter @albertomoneti