You Really Got Me è un classico del rock, firmato Ray Davies e da costui inciso con la sua band The Kinks nel 1964. Nonostante il sound del tempo non permettesse sonorità abbastanza dure, il brano è considerato l’archetipo dell’heavy metal ed stato mezionato in ogni sorta di classifica stilata sulle migliori canzoni di tutti i tempi (Rolling Stone, BBC, Q Magazine, VH1).
Le cover realizzate da altri artisti sono innumerevoli, tra le quali spicca quella dei Van Halen del 1978.

Testo + accordi e tablatura per chitarra.

You Really Got Me The Kinks Lyrics Accordi per Chitarra Tablatura Guitar

intro
(riff 1)
 F5 G5 F5 G5
------------|
------------|
------------|
-3--5-5-3-5-|
-3--5-5-3-5-|
-1--3-3-1-3-|

verses
(w/riff 1)
(1)girl you really got me going    you got me so i dont know what im doing
(2,3)see dont ever set me free     i always wanna be your side

yeah you really got knowing        you got me so i cant sleep at night
yeah you really got knowing        you got me so i cant sleep at night

(riff 2)
 G5 A5 G5 A5
------------|
------------|
------------|
-5--7-7-5-7-|
-5--7-7-5-7-|
-3--5-5-3-5-|

(w/riff 2)
yeah you really got me now  you got me so I dont know what im doing now

(riff 3
 C5  D5    C5 D5
-----------------|
-----------------|
-----------------|
-10--12-12-10-12-|
-10--12-12-10-12-|
-8---10-10-8--10-|

(w/riff 3)
oh yeah you really got me now you got me so I cant sleep at night

chorus
                                                         C5
you really got me you really got me you really got me

solo

---------------------------------------------------------
-------------------3-------------------------------------
-5b-5b-5b-5b-5b-5b---5b6-6r5p3p0--3-0-3-0-3-0-3-0-3-0-3--
---------------------------------------------------------
---------------------------------------------------------
---------------------------------------------------------

------------------------------------|
------------------------------------|
-5b6-6r5p3p0--3-0-3-0-3-5b6-6r5p3p0-|
------------------------------------|
------------------------------------|
------------------------------------|

-6p3------------------------------------------6p3----
-----3--------------------------------------------3--
-------5b6-6r5p3p0--3-0-3-0-3-5b6-5b6-6r5p3p0--------
-----------------------------------------------------
-----------------------------------------------------
-----------------------------------------------------

-------------------------------------------------------|
-------------------------------------------------------|
-5b6-6r5p3p0--3-0-3-0-3--5b6-5b6-5b6-5b6-5b6--5b6--5b6-|
-------------------------------------------------------|
-------------------------------------------------------|
-------------------------------------------------------|

ending
D     D7

[The Kinks]

Articoli correlati

L'autore del post

Foto dell'autore
Alberto Moneti 31 anni; pianista dall'età di 8 anni, organista, percussionista, ha conseguito la licenza in teoria e solfeggio al Conservatorio Cherubini di Firenze. Webmaster, operatore di marketing online e SEO. Twitter @albertomoneti