Lynyrd Skynyrd Simple Man Guitar Chords Tab Lyrics Accordi

                   C                       G
E|------------|-----------------------|---------------------|
B|------------|-----------1-----------|---------------------|
G|*-----------|--0-----------0-----0--|-------------0-------|
D|*-----------|-----2-----------2-----|-----0----------0-0--|
A|---0--2--3--|--------3--------------|--------2-----------2|
E|------------|-----------------------|--3--------3---------|

  Am                                                                 

E|---------------------------------------0--3--0---||
B|---------------1---------------------------------||
G|------2-----------2-----2-----2-----------------*||
D|---------2-----------2-----------2--------------*||
A|---0--------0--------------0--------0------------||
E|-------------------------------------------------||


C                  G           Am
  My momma told me, when I was young.
C                   G                 Am
  Come sit beside me, my one and only son.
C                    G          Am
  And listen closely, to what I say.
           C                G           Am
And if you do this, it will help you some sunny day.

C               G               Am
  Take you time, don't live too fast.
C                    G                 Am
  Troubles will come, and then they'll pass.
              C     G            Am
If you find a woman, you'll find love.
          C                G                 Am
But don't forget me my son, there is someone up above.

         C       G         Am
And be a simple    kind of man.
   C         G                   Am
Be something    you can love and understand.
           C      G             Am
Baby, be a simple.  Be a simple man.
          C              G           Am
Won't you do this for me son, if you can.

            C    G                   Am
Forget your lust, for the rich man's gold.
             C    G           Am
All that you need, is in your soul.
        C       G       Am
You can do this, if you try.
           C               G          Am
All that I want for you my son, is to be satisfied.

         C       G         Am
And be a simple    kind of man.
   C         G                   Am
Be something    you can love and understand.
           C      G             Am
Baby, be a simple.  Be a simple man.
          C              G           Am
Won't you do this for me son, if you can.

             C     G                Am
Oh don't you worry, you'll find yourself.
            C     G            Am
Follow your heart, and nothing else.
        C      G                    Am
Do this for me, at least you should try.
            C               G          Am
Cause all I want for you my son, is to be satisfied.

         C       G         Am
And be a simple    kind of man.
   C         G                   Am
Be something    you can love and understand.
           C      G             Am
Baby, be a simple.  Be a simple man.
          C              G           Am
Won't you do this for me son, if you can.

Articoli correlati

L'autore del post

Foto dell'autore
Alberto Moneti 31 anni; pianista dall'età di 8 anni, organista, percussionista, ha conseguito la licenza in teoria e solfeggio al Conservatorio Cherubini di Firenze. Webmaster, operatore di marketing online e SEO. Twitter @albertomoneti