Composta da Noel Gallagher, The Hindu Times è la prima canzone rilasciata come singolo dall’album degli Oasis Heathen Chemistry, nel 2002. Il testo, anch’esso scritto dallo stesso Noel, riflette le tematiche degli anni d’esordio del gruppo (vedi Rock’n Roll Star) e non ha niente a che vedere col titolo scelto per esso, ispiratogli semplicemente da una scritta su una t-shirt.
Fu un enorme successo di pubblico e critica, riportando in auge il gruppo inglese dopo 6-7 anni dopo i fasti di (What’s The Story) Morning Glory?, e primeggiò sia nelle classifiche del Regno Unito che in quelle italiane.

Testo con accordi per chitarra e tablatura di riff e assolo.

Accordi e Tablatura per Chitarra Guitar Chords Tab Lyrics

Main Riff:

E-----------------------------------------------------------
B--------------------5--------------------------------------
G--6-7-6---------6-7---7-6--6-7-6---------------------------
D---------7-7--7-------------------7-5-5---5-7-7------------
A----------------------------------------7------------------
E-----------------------------------------------------------

Verse

A
I get up, when i'm down

                     Dsus2
I can't swim, but my soul won't drown

A
I do believe, i've got flair

                  Dsus2
I got speed and I walk on air 

Bridge

D                                     A
Cos god gave me a soul in your rock'n'roll babe

D                                     A
Cos god gave me a soul in your rock'n'roll babe

Chorus

E                   D                  A
And I get so high I just can't feel it

E                   D
And I get so high I just can't feel it

C/G           D                             C/G
In and out my brain your runnin' through my veins

        Dsus2                 A
Your my sunshine your my rain

A  Dsus2

Verse 2

There's a light, that shines on

Shines on me and it keeps me warm

It gives me peace I must say

I can't sleep cos the world won't wait

(Bridge)

(Chorus)

Solo:

    D                                A

E-----------------------------------------------------------
B--------------------------12-------------------------7-----
G-13-14-13-----------13-14----14-13--8-9-8--------8-9---9-8-
D----------14-14--14-----------------------9-9--9-----------
A-----------------------------------------------------------
E-----------------------------------------------------------

                                                      (x2)

And I get so high I just Can't feel it

And I get so high I just Can't feel it

And I get so high I just Can't feel it

And I get so high I just can't feel it

In and out my brain your runnin' through my veins

You're my sunshine your my rain

A                       A

[Oasis]

Articoli correlati

L'autore del post

Foto dell'autore
Alberto Moneti 31 anni; pianista dall'età di 8 anni, organista, percussionista, ha conseguito la licenza in teoria e solfeggio al Conservatorio Cherubini di Firenze. Webmaster, operatore di marketing online e SEO. Twitter @albertomoneti