Lifeline è un singolo del 2009 dei Papa Roach, secondo estratto dall’album Metamorphosis. Il titolo in origine era “Hanging On”, fino a quando però il cantante Jacoby Shaddix ha cambiato le parole del ritornello. Non è molto chiaro a cosa il testo faccia riferimento: nonostante si faccia spesso riferimento al flusso della vita, alla crescita ed al cambiamento degli uomini nel corso della vita stessa, lo stesso Shaddix ha dichiarato che la canzone riflette il difficile periodo economico che l’America sta vivendo.

Testo, accordi per chitarra e tablatura di Lifeline, Papa Roach.

Papa Roach Lifeline Testo Accordi Lyrics Chords

Intro: D-- x4 D--G--Em-A--D

Verse 1:
     D
When I was a boy
I didn't care about a thing
       G
It was me and this world
And a broken dream
      Em
I was blaming myself
    A
For all that was going
D
wrong (going wrong)
      D
I was way out there
On the wrong side of town
        G
And the one's that I loved
I started pushing them out
       Em
Then I realized
     A             D
That it was all my fault

Chorus 1:
                        D
I've been looking for a lifeline
                      G
For what seems like a lifetime
                    Em
I'm drowning in the pain
               A
Breaking down again
              D
Looking for a lifeline

Verse 2:
     D
So I put out my hand
And I asked for some help
   G
We tore down the walls
I built around myself
       Em
I was struck by the light
    A(hold)       D
And I fell to the ground

(Repeat Chorus 1)

Chorus 2:
                 D
Is there anybody out there
Can you pull me from this
G
ocean of despair
                    Em
I'm drowning in the pain
               A
Breaking down again
              D
Looking for a lifeline

Bridge:
           Bm
You know a heart of gold
      A                G
Won't take you all the way
         Bm
And in a world so cold
     A                G
It's hard to keep the faith
I'm never gonna fade away

Interlude: D--G--Em-A--D

(Repeat Chorus 1)

Chorus 3:
                 D
Is there anybody out there
Can you pull me from this
Bm
ocean of despair
                    Em
I'm drowning in the pain
               G
Breaking down again
              D
Looking for a lifeline

Outro: D--G--Em-A--D(hold)

[Papa Roach]

Papa Roach Lifeline Tablatura per Chitarra Guitar Tab

E|------------------------------------------------------------------------------|
B|------------------------------------------------------------------------------|
G|------------------------------------------------------------------------------|x4
D|12-0-0-12-0-0-12-0-11-0-0-11-0-0-11-0-16-0-0-16-0-0-16-0-11-0-0-11-0-0-11-0---|
A|------------------------------------------------------------------------------|
D|------------------------------------------------------------------------------|

E|------------------------------------------------------------------------------|
B|------------------------------------------------------------------------------|
G|------------------------------------------------------------------------------|
D|12-0-0-12-0-0-12-0-11-0-0-11-0-0-11-0-17-0-0-17-0-0-17-0-11-0-0-11-0-0-11-0---|
A|------------------------------------------------------------------------------|
D|------------------------------------------------------------------------------|

E|------------------------------------------------------------------------------|
B|------------------------------------------------------------------------------|
G|------------------------------------------------------------------------------|
D|12-0-0-12-0-0-12-0-11-0-0-1-0-0-11-0-16-0-0-16-0-0-16-0-11-0-0-11-0-0-11-0----|
A|------------------------------------------------------------------------------|
D|------------------------------------------------------------------------------|

Between Verses

---------------------------|
---------------------------|
---/7-6-4-2----------------|
---------------------------|
---/5-4-2-0----------------|
---------------------------|

Before Chorus

---------------------------|
---------------------------|
---/7-9-11-14--------------|
---------------------------|
---/5-7--9-12--------------|
---------------------------|

Articoli correlati

L'autore del post

Foto dell'autore
Alberto Moneti 31 anni; pianista dall'età di 8 anni, organista, percussionista, ha conseguito la licenza in teoria e solfeggio al Conservatorio Cherubini di Firenze. Webmaster, operatore di marketing online e SEO. Twitter @albertomoneti