The Ramones Blitzkrieg Bop Guitar Chords Tab

Intro:

-----------------------------------------------------------------
-----------------------------------------------------------------
----------------7-7-7-9--9-9-9------------------7-7-7-9--9-9-9---
7-7-7-7-7-7-7-7-7-7-7-9--9-9-9--7-7-7-7-7-7-7-7-7-7-7-9--9-9-9---
7-7-7-7-7-7-7-7-5-5-5-7--7-7-7--7-7-7-7-7-7-7-7-5-5-5-7--7-7-7---
5-5-5-5-5-5-5-5-----------------5-5-5-5-5-5-5-5------------------

-----------------------------------------------------------------
-----------------------------------------------------------------
----------------7-7-7-7-9--9-9-9----------7-7-7-7----------------
7-7-7-7-7-7-7-7-7-7-7-7-9--9-9-9--7-7-7-7-7-7-7-7----------------
7-7-7-7-7-7-7-7-5-5-5-5-7--7-7-7--7-7-7-7-5-5-5-5-7-7-7-7-7-7-7-7
5-5-5-5-5-5-5-5-------------------5-5-5-5---------5-5-5-5-5-5-5-5

*silent*
Hey Ho lets go...

A                                  D E
They're forming in a straight line
A                                  D E
They're going through a tight wind
A                                   D E
And the kids are losing their minds
E                  A D A
The Blitzkrieg Bop

A                               D E
They're piling in the back seat
A                             D E
They're generating steam heat
A                             D E
And pulsating to the back beat
E                  A D A
Of the Blitzkrieg Bop



D    D*    D**
Hey Ho let's go
A                        D E
Shoot'em in the back now
D    D*      D**        Dm
What they want, I don't know

Bm
   all reved up
    E
and ready to go

A                                D E
They're forming in straight line
A                                      D E
And they're going through a tight wind
A                                   D E
And the kids are losing their minds
E                     A D A
To the Blitzkrieg Bop

A                              D E
They're piling in the back seat
A                             D E
They're generating steam heat
A                          D E
Pulsating to the back beat
                      A D A
Of the Blitzkrieg Bop

D    D*    D**
Hey Ho let's go
A                        D E
Shoot'em in the back now
D        D*   D**         Dm
And what they want, I don't know oh

   Bm
Oh Oh all reved up
    E
and ready to go

A                                D E
They're forming in straight line
A                              D E
And going through a tight wind
A                                   D E
And the kids are losing their minds
                  A D A
The Blitzkrieg Bop

A                              D E
They're piling in the back seat
A                             D E
They're generating steam heat
A                             D E
And pulsating to the back beat
                     A D A
Of the Blitzkrieg Bop

*silent*
Hey Ho lets go...

The Ramones Guitar chords

Articoli correlati

L'autore del post

Foto dell'autore
Alberto Moneti 31 anni; pianista dall'età di 8 anni, organista, percussionista, ha conseguito la licenza in teoria e solfeggio al Conservatorio Cherubini di Firenze. Webmaster, operatore di marketing online e SEO. Twitter @albertomoneti