Anarchy In The UK non è semplicemente una canzone dei Sex Pistols, singolo estratto da Nevermind The Bollocks, Here’s The Sex Pistols (1976): è una vero e proprio inno del nichilismo e della corrente anarchica più violenta. Il testo, scritto da John Lydon, contiene riferimenti alle maggiori organizzazioni politiche e paramilitari dell’epoca quali l’MPLA, l’UDA e l’IRA.
Ad oggi è riconosciuta come una delle canzoni punk più famose di tutti i tempi, probabile capostipite del movimento stesso.

Testo + accordi e tablatura per chitarra.

Sex Pistols Anarchy In The UK Testo Accordi Lyrics Guitar Chords

     C                     F   C                     F
1.  I am an antichrist, I am an anarchist,
                C                                       F
    don't know what I want, but I know how to get it.
         C
     I wanna destroy the passers by,
           G            F            C          - G
    'cos I wanna be anarchy.  No dog's body !

     C                        F          C                F
2. Anarchy for the UK, it's coming some time and maybe,
       C                                               F
    I give a wrong time stop a traffic line.
              C
    Your future dream is a shopping scheme,
               G            F            C             - G
    'cause I wanna be anarchy. It's in the city.

               C                                         F
3. How many ways to get what you want,
    C                                    F
    I use the best I use the rest.
   C                      F C
    I use the enemy, I use anarchy,
               G            F            C                  - G
    'cause I wanna be anarchy. It's the only way to be.

     C                    F      C                   F
4. Is this the MPLA, or is this the UDA,
        C                  F C
    or is this the IRA, I thought it was the UK,
          G      F                 C
    or just another country, another council tenancy.
    G            F                 C    ~      G            F          C
    I wanna be an anarchist,   and l wanna be an anarchist.
           G            F                  C
    And l wanna be an anarchist. I get pissed, destroy!

[Sex Pistols]

Sex Pistols Anarchy In The UK Tablatura per Chitarra Tab

INTRO
E-------------------------------------------------------------------------|
B-------------------------------------------------------------------------|
G--12-12-12-12-12-12-12-12-12-12-12-12-12-12----10-10-10-10-10-10-10-10---|
D--10-10-10-10-10-10-10-10-10-10-10-10-10-10-----8--8--8--8--8--8--8--8---|
A--10-10-10-10-10-10-10-10-10-10-10-10-10-10-----8--8--8--8--8--8--8--8---|
E-------------------------------------------------------------------------|

E----------------|
B----------------|
G---9---7---5----|
D---9---7---5----|
A---7---5---3----|
E----------------|

VERSE
E-----------------------------------|
B-----------------------------------|
G---5-5-5-5-5-5-5-5-5-5-5-10-9------|
D---5-5-5-5-5-5-5-5-5-5-5-10-9------|   x4
A---3-3-3-3-3-3-3-3-3-3-3--8-7------|
E-----------------------------------|

GUITAR SOLO 1

E------------------------------------------------|
B--13-13-13-10~~~-15-15-15-12~~~-----------------|
G------------------------------------------------|   x3
D------------------------------------------------|
A------------------------------------------------|
E------------------------------------------------|

E-------------------------------------------------------|
B--13-13-13-10~~~-15-15-15-15~-15-15-15--15-15-15-15~~~~|
G-------------------------------------------------------|
D-------------------------------------------------------|
A-------------------------------------------------------|
E-------------------------------------------------------|

GUITAR SOLO 2

E------------------------------------------------|
B------------------------------------------------|
G------------------------------------------------|  x4
D-16-16-16-14-14-16--17-16-14-14-16-16-----------|
A------------------------------------------------|
E------------------------------------------------|
Cercasi Programmatore Javascript

Articoli correlati

  • ’74 ’75’74 ’75 The Connels '74 '75 Guitar Chords Tab Lyrics […]
  • Everybody HurtsEverybody Hurts Everybody Hurts è stata scritta dal batterista dei Rem, Bill Berry, il quale poi non suona nella canzone stessa (avendo predisposto una leggera base con una drum machine Univox). […]
  • Un Disco All’Anno: 2003Un Disco All’Anno: 2003 The White Stripes - Elephant Ridurre questo album alla sola hit mondiale "Seven Nation Army" è a dir poco riduttivo. Qui di carne al fuoco ce n'è in abbondanza, il duo […]
  • Born To Be AliveBorn To Be Alive Born To Be Alive è un classico della canzone disco-pop, composto ed inciso nel 1978 dal francese Patrick Hernandez. Il singolo, title-track dell'eponimo album, ha spopolato nel […]

L'autore del post

Foto dell'autore
Alberto Moneti 31 anni; pianista dall'età di 8 anni, organista, percussionista, ha conseguito la licenza in teoria e solfeggio al Conservatorio Cherubini di Firenze. Webmaster, operatore di marketing online e SEO. Twitter @albertomoneti