Social Distortion Reach For The Sky Guitar Chords Tab Accordi

Intro:
| ------------------------------------------------------------ |
| ------------------------------------------------------------ |
| --3-3-3-3-3-3---5-5-5-5-5/6-6-6-6--3-3-3-3-3---8-8-8-8-8---- |
| --x-x-x-x-x-x---x-x-x-x-x/x-x-x-x--x-x-x-x-x---x-x-x-x-x---- |
| --1-1-1-1-1-1---3-3-3-3-3/4-4-4-4--1-1-1-1-1---6-6-6-6-6---- |
| ------------------------------------------------------------ |

Pre-verse while chords are Em   C   G   D
e|---------------------------------------|
B|---------------------------------------|
G|-6-5-3---6-5-3----6-5-3-1-3-5-6-8-6-5--|  X2
D|------3--------1-----------------------|
A|---------------------------------------|
E|---------------------------------------|

Em     DD Em

Em                         C
  When I was young I was invincible,
G                            D
  I find myself now thinking twice,
Em                         C
  I never thought about no future,
G                          D
  its just the roll of the dice.

          Em                       C
  But the day may come when you've got something to lose,
    G                          D
and just when you think you're done paying dues
        Em                    C
And you say to yourself, dear God what Have I done?
    G                              D
And hope its not too late 'cause tomorrow may never

Em      C
co------me.
G                           D                Em      C
Reach For the Sky, 'cause tomorrow may never come
G                           D                Em
Reach For the Sky, 'cause tomorrow may never come

Em     DD Em

Em             C
  Yesterday is history
G                  D
  and tomorrow's a mystery
Em         C
  But baby right now,
G                D
  its just about you and me.
        Em                         C
You can run you can hide just like Bonnie and Clyde
G                       D
Reach for the sky ain't never gonna die,
      Em                     C
and I thank the Lord for the love I have found
    G                       D
and hold you tight, cause tomorrow may never

Em      C
co------me.
G                           D                Em      C
Reach For the Sky, 'cause tomorrow may never come
G                           D                Em
Reach For the Sky, 'cause tomorrow may never come

Em     DD Em

Intro: X2

Em                           C
  So if you please take this moment
G                        D
  Try if you can make it last
Em                     C
  Don't think about no future,
G                           D
  and just forget about the past, and make it

Em      C
la------st.
G                           D                Em      C
Reach For the Sky, 'cause tomorrow may never come
G                           D                Em      C
Reach For the Sky, 'cause tomorrow may never come

Articoli correlati

L'autore del post

Foto dell'autore
Alberto Moneti 31 anni; pianista dall'età di 8 anni, organista, percussionista, ha conseguito la licenza in teoria e solfeggio al Conservatorio Cherubini di Firenze. Webmaster, operatore di marketing online e SEO. Twitter @albertomoneti