The Strokes Last Nite Guitar Tab Chords Accordi

Intro:
C F G

Verse:
C Dm G Em Dm

Chorus:
F G

C
Last night she said
Dm
Oh, Baby, I feel so down
G
Oh, and turned me off
Em        Dm
When I feel left out
C
So I, I turned around
Dm
Oh, Baby, I don't care no more
G
I know this for sure
Em              Dm
I'm walking out that door

C
Well, I've been in town

For just about fifteen minutes now
Dm
Oh, Baby, I feel so down
G
And I don't know why
Em           Dm
I keep walking for miles

F                        G
But the people they don't understand
F                          G
No, girlfriends, they can't understand
F                         G
Your grandsons, they won't understand
F                                G
On top of this I ain't ever gonna understand

C
Last night she said
Dm
Oh, Baby, I feel so down
G
Oh, and turned me off
Em         Dm
When I feel left out
C
So I, I turned around
Dm
Oh, Baby, I'm gonna be alright
G
It was a great big lie
Em           Dm
As I left that night, yeah

Solo:
C F G

F                  G
Oh, people they don't understand
F                       G
No, girlfriends, they don't understand
F                     G
In spaceships, they won't understand
F                      G
And me, I ain't ever gonna understand

C
Last night she said
Dm
Oh, Baby, I feel so down
G
She had turned me off
Em       Dm
When I feel left out

C
So I, I turned around
Dm
Oh, little girl, I don't care no more
G
I know this for sure
Em       Dm
I'm walking out that door, yeah

C F G

So..
Is It...

Solo

e|-----------------------------------------------------------------------|
B|-18^--18p16\13-15-18--18p16\13--16----15----12^^----16----15-----12^^^-|
G|-----------------------------------14----13-----10-----14----13--------|
D|-----------------------------------------------------------------------|
A|-----------------------------------------------------------------------|
E|-----------------------------------------------------------------------|

e|-----------------------------------------------------------------------|
B|------------------------------------------------------16^^^------------|
G|-------------------------------12-12-12-12-12-12-12--------------------|
D|-13-10-13-10-13-10-13-10-13-10-12-12-12-12-12-12-12--------------------|
A|-----------------------------------------------------------------------|
E|-----------------------------------------------------------------------|

Articoli correlati

L'autore del post

Foto dell'autore
Alberto Moneti 31 anni; pianista dall'età di 8 anni, organista, percussionista, ha conseguito la licenza in teoria e solfeggio al Conservatorio Cherubini di Firenze. Webmaster, operatore di marketing online e SEO. Twitter @albertomoneti