The Boys Are Back In Town è il singolo di maggior successo degli irlandesi Thin Lizzy, uscito nel 1976 ed inciso con l’album Jailbreak. E’ una celebre canzone per chitarristi (o guitar track se preferite), che nel 2008 il magazine Q ha classificato 38esima tra le migliori di tutti i tempi; notevole la tecnica di unisono tra le due chitarre elettriche di Gorham e Robertson.
E’ stata spesso usata in ambito televisivo, ma è famosa in quanto colonna sonora a moltissimi match di rugby in Irlanda.

Testo con accordi e tablatura per chitarra.

The Boys Are Back In Town Accordi per Chitarra Guitar Chords Lyrics

[Intro] Ab5 [Ab5 riff] Bb5 Db5

Ab5 riff:
e|------------------|
B|------------------|(Guitar 1 plays it palm muted)
G|------------------|(Guitar 2 plays it the way it is)
D|----3-3-3-1---1-3-|
A|-3----------3-----|
E|------------------|

[Verse 1]
Ab5                Cm7
Guess who just got back today?
Db                          F7sus
Those wild eyed boys who've been away,
Cm7                           F7sus
They haven't changed, haven't had much to say,
Bbm7                               Db/Eb
But man I still think those cats are crazy.
Ab5                    Cm7
They were askimg me if you were around,
Db                E
How you was, and where you could be found,
Cm7                         F7sus
I told them you were living down town,
Bbm7                Db/Eb
Driving all the old men crazy.

[Chorus]
Ab5                                                Bb5 Db5
The boys are back in town. (Boys are back in town)
Ab5
The boys are back in Tow-oo-ow-own,
Bb5          Db5
The Boys are back in town.
Ab5
The Boys are back in town (Boys are back in town)
Bb5                Db5
The Boys are back, The boys are back

[Riff]

Riff: Guitar 1: (Lower Harmony)
e|----------------------------------------------|
B|----------------------------------------------|
G|--------1-1~-----------1-1~------------1-3~---|
D|-1-1-3h------1--1-1-3h-------1--1-1-3h------1-|
A|----------------------------------------------|
E|----------------------------------------------|

First ending:            Second Ending:
e|----------------------|------------------|
B|----------------------|------------------|
G|--------1-3-3-3-3-1---|-3/5\3------------|
D|-1-1-3h-------------1-|-------3/5\3\1----|
A|----------------------|------------------|
E|----------------------|---------------4~-|

Riff: Guitar 2: (Higher Harmony)
e|----------------------------------------------|
B|--------1-1~-----------1-1~------------1-4~---|
G|-1-1-3h------1--1-1-3h-------1--1-1-3h------1-|
D|----------------------------------------------|
A|----------------------------------------------|
E|----------------------------------------------|

First + Second Ending.
e|-----------------------|
B|--------1-2-2-2-2-1----|
G|-1-1-3h--------------3-|
D|-----------------------|
A|-----------------------|
E|-----------------------|

[Verse 2]
Ab5                              Cm7
Remember that chick who used to dance a lot?
Db                 F7sus
Every night on the floor she'll be shaking what she got,
Cm7                    F7sus
Man I tell you she was cool, she was red hot.
Bbm7               Db/Eb
I mean, she was steaming.
Ab5                   Cm7
That one time over at Jonny's place,
Db                      E
That chick got up and slapped Jonny's face,
Cm7               F7sus
Man we just fell about the place,
Bbm                                     Db
And if that girl don't want to know, forget her.

[Chorus]

[Bridge]
Gb Db Cm7                 F7sus
     You spread the word around.
Bm7                 Db     F7sus
Guess whose back in town...oh...

[Verse 3]
Ab5                      Cm7
Friday night they'll be dressed to kill,
Db             F7sus
Down at Tino's bar and grill,
Cm7                          Fsus7
The drinks will flow and the blood will spill,
Bbm7                             Db/Eb
And if those boys want to fight, you'd better let 'em.
Ab5                       Cm7
The jutebox in the corner blasting out my favorite song,
Db                       E
The nights are getting warmer and it won't be long,
Cm7                  F7sus
It won't belong till summer comes,
Bbm7                    Db/Eb
Now that those boys are here again.

[Chorus]

Outro:
Guitar 1: (Lower harmony)
e|---------------------------------|
B|---------------------------------|
G|-1~----1-2-4-----1-2-4-----------|
D|----1~-------1~--------1~--6~-8~-|(x2)
A|---------------------------4~-6~-|
E|---------------------------------|

Guitar 2: (Higher Harmony)
e|---------------------------------|
B|-1~----1-2-4-----1-2-4-----2~-4~-|
G|----1~-------1~--------1~--1~-3~-|
D|---------------------------------|
A|---------------------------------|
E|---------------------------------|

[Riff] "I saw them hanging out at Tino's...."

[Thin Lizzy]

Articoli correlati

  • Mentre DormiMentre Dormi Inciso nel 2010 da Max Gazzè con l'album Quindi?, Mentre Dormi è un brano scritto assieme a Gimmi Santucci. Ha fatto da colonna sonora per il film diretto da Rocco Papaleo dello […]
  • Good VibrationsGood Vibrations Composta da Brian Wilson, Good Vibrations è una canzone rilasciata come singolo nel 1966 dai Beach Boys, ed incisa l'anno seguente con l'album Smiley Smile. Le "goob vibrations" […]
  • Eri BellissimaEri Bellissima Eri Bellissima è una canzone incisa come ottava traccia del settimo album in studio di Luciano Ligabue, Fuori Come Va?, del 2002. E' stato estratto dallo stesso album e promosso […]
  • BevoBevo Bevo è la seconda traccia ed il secondo singolo estratto da Tempi Bui, l'album del 2009 inciso dai Ministri come secondo lavoro studio. E' stato promosso con la realizzazione di […]
  • Gimme ShelterGimme Shelter Gimme Shelter è la traccia d'apertura di Let It Bleed, album dei Rolling Stones inciso e rilasciato nel 1969. Il titolo originale in realtà era scritto "Gimmie", ma ha perso la […]

L'autore del post

Foto dell'autore
Alberto Moneti 31 anni; pianista dall'età di 8 anni, organista, percussionista, ha conseguito la licenza in teoria musicale e solfeggio al Conservatorio Cherubini di Firenze. Fondatore di Accordiespartiti.it, operatore di marketing online e SEO.