I Still Haven’t Found What I’m Looking For è la seconda traccia del leggendario album degli U2 datato 1986, The Joshua Tree. Il singolo, rilasciato in seguito al successo planetario di With Or Without You, raggiunse la vetta delle classifiche americane ed il sesto posto di quelle inglesi. Nel 2004 è stata classificata 93esima da Rolling Stone tra le 500 canzoni più belle di tutti i tempi.
La canzone nacque dalla base di basso e batteria di Under The Weather Girls, un pezzo che gli U2 avevano precedentemente registrato ma che non li aveva del tutto convinti: così, rilavorando sulla linea melodica di voce e chitarra, prese forma I Still Haven’t Found What I’m Looking For.

U2 I Still Haven’t Found What I’m Looking For Tablatura per Chitarra Tab

FIGURE 1 (Verse)
e--------------------------------4-----------------
b-----5-5-5-----5---------5-5-5----5--------------
g--2----------2-----2---2--------------------------   x2
d--------------------------------------------------
a--------------------------------------------------
e--------------------------------------------------

FIGURE 2 (verse)
e------------------------------4---------------------------------------4---
b--------5-5-5---5-------5-5-5---5----------5-5-5----5---------5-5-5-----5-
g-----2--------2-------2-------------------2-------2---------2-------------
d--0----------------0------------------------------------------------------
a----------------------------------------0------------------0--------------
e--------------------------------------------------------------------------

FIGURE 3  (Chorus)
e------------------------------4-------------------------------4----
b-----5-5-5-----5-------5-5-5----5------5-5-5-----5-------5-5-5---5-
g----2-------2--------2----------------2--------2-------2-----------
d-------------------0-----------------------------------------------   x2
a-------------------------------------0---------------0-------------
e-0-----------------------------------------------------------------

Play FIGURES 1 & 2 during the Verse of the song, and play
FIGURE 3 during the chorus.

I Still Haven’t Found What I’m Looking For Testo Accordi Lyrics Chords

D
I have climbed the highest mountains

I have run through the fields
           G
Only to be with you
           D
Only to be with you
          D
I have run I have crawled
          G
I have scaled these city walls
           D
Only to be with you
       A               G
But I still haven't found
             D
What I'm looking for

But I still haven't found
What I'm looking for

I have kissed honey lips
Felt the healing in her fingertips
It burned like fire
This burning desire
I have spoke with the tongue of angels
I have held the hand of a devil
It was warm in the night
I was cold as a stone
But I still haven't found
What I'm looking for
But I still haven't found
What I'm looking for

I believe in the Kingdom Come
Then all the colors will bleed into one
But yes I'm still running.
You broke the bonds
You loosened the chains
You carried the cross
And my shame
And my shame
You know I believed it
But I still haven't found
What I'm looking for
But I still haven't found
What I'm looking for

Articoli correlati

  • Sweetest ThingSweetest Thing Sweetest Thing è un brano del 1987 degli U2, rilasciato in un primo tempo come B-Side del singolo Where The Streets Have No Name, ma successivamente reinciso e ripubblicato come […]
  • Get On Your BootsGet On Your Boots Get On Your Boots è il primo singolo dell'album No Line On The Horizon, rilasciato dagli U2 nel 2009. Lo stile della canzone è stato spesso definito come elettro-grunge, con un […]
  • OneOne One è uno dei brani più conosciuti degli U2, inciso nel 1991 col fortunato album Achtung Baby e da esso poi rilasciato come terzo singolo. E' a dir poco un classico della musica […]
  • MagnificentMagnificent Magnificent è il secondo singolo di No Line On The Horizon, album studio datato 2009 degli U2, il cui testo descrive l'amore nella maniera più euforica. E' stato scritto durante […]

L'autore del post

Foto dell'autore
Alberto Moneti 31 anni; pianista dall'età di 8 anni, organista, percussionista, ha conseguito la licenza in teoria e solfeggio al Conservatorio Cherubini di Firenze. Webmaster, operatore di marketing online e SEO. Twitter @albertomoneti