Magic Bus è un brano dei Who, tra i loro più popolari e sempre suonato ai concerti; fu scritto da Pete Townshend e pubblicato con l’album-compilation Magic Bus: The Who On Tour (1968).
John Entwistle, il bassista, ha dichiarato di odiare questa canzone a causa della parte di basso che è costruita su un’unica nota ripetuta fino alla nausea per tutto il pezzo. E il suo odio cresceva quando, in alcune esibizioni live, la durata superava gli otto minuti.

Testo con accordi e tablatura per chitarra.

Magic Bus Accordi Tablatura per Chitarra Guitar Chords

Intro
E--------------------------------7-7-2-2---5-5---5----8-8-8--7--7------|
B--------------------------------8-8-3-3---5-5---5----8-8-8--8--8------|
g-------------------2--2--2--0---7-7-2-2---6-6---6----5-5-5--7--7------|
D-2--2--2-----------2--2--2--0---0-0-0-0-----7---7----5-5-5--0--0------|
A-0--0--0-3^-----3^-0--0--0----------0-------0---0---------------------|
E----------------------------------------------------------------------|

E-----5--5---8-8-8-8-7--7--------------------------------------------3-|
B-----5--5---8-8-8-8-8--8--------------------------------------------3-|
g-----6--6---5-5-5-5-7--7----2-----2----------------------------2----0-|
D-7---7--7---5-5-5-5-0--0----2-----2---2------------------------2--0-0-|
A-0-0-0--0-----------------0-0---0-0---0-3^---0-3^-3^-3^-x--3^--0--2-2-|
E------------------------------------------------------------------3-3-|

E---3--3--2------------------------------------------------------------|
B-3-3--3--3------------------------------------------------------------|
g-0-2--2--2------------------------------------------------------------|
D-0-0--0--0------------------------------------------------------------|
A----------------------------------------------------------------------|
E----------------------------------------------------------------------|

1st Verse

A           C/G  C/D    D
Every Day I Get in the queue
 A             G     D
(Too Much The Magic Bus)
   A                     C/G G/D    D
To get on the bus that takes me to you
(too Much the magic Bus)
 A           G/D      D       A
Im so nervous I just sit and smile
(Too Much The Magic Bus)
 A                  G/D     D
Your house is only another mile
(Too Much the magic Bus)

Verse 2 same as 1st

Solo (interlude)

E-----------------------------------------------------8---------------|
B--------------------------------------------------10----10-10-10-10--|
g-2-----------------------2-----2--0----------------------------------|
D-2-----------------------2----------0--0-----------------------------|
A-0-----------------------0---------------3--3--0---------------------|
E---------------------------------------------------------------------|

E-------------------------------------8--8----7-7--7------------------|
B--------------------------2---2-2-2--8--8----8-8--8------------------|
g-7-7--2----x---x-x-x----2-2---2-2-2--5--5----7-7--7------------------|
D-7-7--2----x---x-x-x----2-2---2-2-2--5--5----0-0--0------------------|
A---5--0----x---x-x-x--0-0-0---0-0-0----------------------------------|
E---------------------------------------------------------------------|

Verse

   A                 G   D
I dont care how much I pay
   A        G/D    D
(Ride  the magic bus )
        A                   Dsus4     D
I wanna drive my bus to my baby each day
 A         G     D
(ride the magic bus)
I want it, I want It, Iwant It, etc...

Cool Part

Lover drives six miles everyday
E------------------------------------------------------------------|
B-----------------------------------3---3--3--------3--------------|
g------------------------------x-x--2---2--2--------2--------------|
D------------------------------x-x--2---2--2---2----2--------------|
A------------------------------x-x--0---0--0---0-3^-0--------------|
E------------------------------------------------------------------|

Just to drive to my baby
E------------------------------------------------------------------|
B-----------------------------------3---3--3--------3--------------|
g------------------------------x-x--2---2--2--------2--------------|
D------------------------------x-x--2---2--2---2----2--------------|
A------------------------------x-x--0---0--0---0-3^-0--------------|
E------------------------------------------------------------------|

Lover Drives six miles every day
E------------------------------------------------------------------|
B---------------------------------5-5----7-7----8-8----7-7---------|
g---------------------------------6-6----7-7----9-9----7-7---------|
D---------------------------------7-7----7-7----7-7----7-7---------|
A------------------------------------------------------------------|
E------------------------------------------------------------------|

Cause I drive my baby every way
E---------------------------------------5--------7-7-7-7-----------|
B-----7-7------5-5----7-7--8-8---7-7----5---7----8-8-8-8-----------|
g-----7-7------6-6----7-7--9-9---7-7----6---7----7-7-7-7-----------|
D-----7-7------7-7----7-7--7-7---7-7----7---7----0-0-0-0-----------|
A-------------------------------------0---0----0-------------------|
E------------------------------------------------------------------|

Chorus X3

 A  G/D     D
Oh  magic  bus
 A           G/D  D
Magic Bus

Outro

D      A             G/D    D
I said now i got my magic bus
A               G/D   D
(too much the magic bus)
D      A           G/D   D      A    G/D    D
Said now i got my magic bus
     A            G/D   D       A    G/D    D
I drive my baby every way
      A            G/D      D      A    G/D    D
Each time I go A different way
    A         G/D  D
I want it  I want it (x4)
  A             G/D     D      A    G/D    D
Everyday youll see the dust

Begin Fade

   A                  G/D    D
I drive my baby in my magic bus

-----------------------------------------------------------------------------
                                    The End
For the verses use the chords that are in the intro

  A       C/G     G/D
E-5--------8-------7-----------------------------------------------|
B-5--------8-------8-----------------------------------------------|
g-6--------5-------7-----------------------------------------------|
D-7--------5-------0-----------------------------------------------|
A-0----------------------------------------------------------------|
E------------------------------------------------------------------|

For The (Too Much Magic Bus) Part use

  A        G       D
E----------3-------2-----------------------------------------------|
B-2--------3-------3-----------------------------------------------|
g-2--------0-------2-----------------------------------------------|
D-2--------0-------0-----------------------------------------------|
A-0--------2-------------------------------------------------------|
E----------3-------------------------------------------------------|

[The Who]

Articoli correlati

L'autore del post

Foto dell'autore
Alberto Moneti 31 anni; pianista dall'età di 8 anni, organista, percussionista, ha conseguito la licenza in teoria e solfeggio al Conservatorio Cherubini di Firenze. Webmaster, operatore di marketing online e SEO. Twitter @albertomoneti