Lacuna Coil Enjoy The Silence Accordi Chords Tab Chitarra

Intro
--------9-------------------------|
---12-------12---10---------------|
----------------------------------|
-9----9---9----9------------------|
----------------------------------|
----------------------------------| x2

----------------------------------|
------------12---10---------------|
---12---10------------12---10-----|
-9----9---9----9----9----9--------|
----------------------------------|
----------------------------------| x2

SI REm

SI
Words like violence
REm
Break the silence
SOL
Come crashing in - Into my little world
SI
Painful to me
REm
Pierce right through me
SOL
Can't you understand - Oh my little girl

MIm
All I ever wanted
SOL
All I ever needed
SI   LA
Is here in my arms
MIm           SOL
Words are very unnecessary
SI
They can only do harm

SI REm SOL

SI REm SOL



SI
Vows are spoken
REm
To be broken
SOL
Feelings are intense - Words are trivial
SI
Pleasures remain
REm
So does the pain
SOL
Words are meaningless - And forgettable

MIm
All I ever wanted
SOL
All I ever needed
SI   LA
Is here in my arms
MIm           SOL
Words are very unnecessary
SI
They can only do harm
SI
Words like violence
REm
Break the silence
SOL
Come crashing in - Into my little world
SI
Painful to me
REm
Pierce right through me
SOL
Can't you understand - Oh my little girl

MIm
All I ever wanted
SOL
All I ever needed
SI   LA
Is here in my arms
MIm           SOL
Words are very unnecessary
SI
They can only do harm
MIm
All I ever wanted
SOL
All I ever needed
SI   LA
Is here in my arms
MIm           SOL
Words are very unnecessary
SI
They can only do harm

Enjoy the silence

Lacuna Coil tablature chitarra

Articoli correlati

L'autore del post

Foto dell'autore
Alberto Moneti 31 anni; pianista dall'età di 8 anni, organista, percussionista, ha conseguito la licenza in teoria e solfeggio al Conservatorio Cherubini di Firenze. Webmaster, operatore di marketing online e SEO. Twitter @albertomoneti