Luciano Ligabue Elisa Gli Ostacoli Del Cuore Accordi Tablatura Chitarra

(ELisa)

LAadd9                                         MI
C'è un principio di magia fra gli ostacoli del cuore
                                              LAadd9
mi si attacca volentieri fra una sera che non muore
                                             MI
è una notte da scartare come un pacco di Natale...

LAadd9                                     MI
C'è un principio di ironia nel tenere coccolati
                                         LAadd9
i pensieri più segreti e trovarli già svelati
                                          MI
e a parlare ero io, sono io che li ho prestati...

                    LAadd9
Quante cose che non sai di me, quante cose che non puoi sapere
                  FA#m
quante cose da portare
    LAadd9        MI
nel viaggio  insieme...

LAadd9                                            MI
C'è un principio di allegria fra gli ostacoli del cuore
                                              LAadd9
che mi voglio meritare anche mentre guardo il mare
                                        MI
mentre lascio naufragare un ridicolo pensiero...

                    LAadd9
Quante cose che non sai di me, quante cose che non puoi sapere
                  FA#m
quante cose da portare
    LAadd9        MI
nel viaggio  insieme...
                    LAadd9
Quante cose che non sai di me, quante cose devi meritare
                  FA#m
quante cose da portare
    LAadd9        MI
nel viaggio  insieme...

SI6                     FA#m
C'è un principio di energia
                     FA#7sus4
che mi spinge a dondolare
                          SOL#m7
fra il mio dire ed il mio fare

(Ligabue)
               LAadd9
e sentire fa rumore
               FA#m
fa rumore camminare
                     MI
fra gli ostacoli del cuore

(Elisa & Ligabue)

                    LAadd9
Quante cose che non sai di me, quante cose che non puoi sapere
                  FA#m
quante cose da portare
    LAadd9        MI
nel viaggio  insieme...
                    LAadd9
Quante cose che non sai di me, quante cose che non puoi sapere
                  FA#m
quante cose da portare
    LAadd9        MI
nel viaggio  insieme...

Intro:
e|--0-0-4-4-0-0-4-4--|
B|--5-5-5-5-5-5-5-5--|

[LAadd9]      [MI5]   
[FA#m]  [LAadd9]  [MI5](x2)

Intro (piano):
e|--7-----------7-----------7-------|
B|------7-9---7-----7-9---7-----7---|
G|----9-----9-----9-----9-----9-----| (x2)
D|----------------------------------|
A|--0-----------0-------------------|
E|----------------------------------|

e|--7-----------7-----------7-------|
B|------7-9---7-----7-9---7-----7---|
G|----9-----9-----9-----9-----9-----| (x2)
D|----------------------------------|
A|----------------------------------|
E|--0-----------0-------------------|

e|--7-----5-----7-----5-----7-------|
B|------7-----7-----7-----7-----7---|
G|----6-----6-----6-----6-----6-----|
D|----------------------------------|
A|----------------------------------|
E|-(2)------------------------------|

e|--7-----------7-----------7-------|
B|------7-9---7-----7-9---7-----7---|
G|----9-----9-----9-----9-----9-----|
D|----------------------------------|
A|--0-----------0-------------------|
E|----------------------------------|

e|--7-----------7-----------7-------|
B|------7-9---7-----7-9---7-----7---|
G|----9-----9-----9-----9-----9-----| (x2)
D|----------------------------------|
A|----------------------------------|
E|--0-----------0-------------------|

Articoli correlati

L'autore del post

Foto dell'autore
Alberto Moneti 31 anni; pianista dall'età di 8 anni, organista, percussionista, ha conseguito la licenza in teoria e solfeggio al Conservatorio Cherubini di Firenze. Webmaster, operatore di marketing online e SEO. Twitter @albertomoneti