Un Colpo All’Anima è il singolo che promuove il non album di Luciano Ligabue Arrivederci Mostro!, pubblicato a 20 anni esatti dalla data di uscita del suo primo album Ligabue, l’11 maggio 1990.
Il singolo, che ha debuttato direttamente al primo posto delle classifiche italiane, è l’ottava traccia del disco.

Accordi per chitarra + tablatura.

Un Colpo All’Anima Accordi per Chitarra Chords

Intro 1:

|--2-2---4-4-5--------------|
|---------------------------|
|---------------------------| (4x)
|---------------------------|
|---------------------------|
|---------------------------|

Intro 2:

|---------------------------|
|---7-7---9-9-10------------|
|---------------------------|  (4x)
|---------------------------|
|---------------------------|
|---------------------------|

MI
Tutte queste luci tutte queste voci
tutti questi amici tu dove sei!?
LA
Tutto questo tempo pieno di frammenti
e di qualche incontro e tu non ci sei
MI
Tutte queste radio piene di canzoni
che hanno dentro un nome ecco chi sei..!
DO#m       SI             LA
Non ti sai nascondere per bene
MI                       LA
Quante volte sei passata quante volte passerai
DO#m           SI              LA         FA#m
e ogni volta è sempre un colpo all’anima (all’anima)

|--9-9-9-9-9---12--|
|--9-9-9-9-9-------|
|--x-x-x-x-x-------|
|--x-x-x-x-x-------|
|--x-x-x-x-x-------|
|--x-x-x-x-x-------|

MI
Tutto questo posto forse troppo visto
deve avere un guasto tu non ci sei !
LA
Tutte quelle case piene di qualcuno
e fra quei qualcuno tu con chi sei!?
MI
Tutte queste onde pronte a scomparire
resta solo il mare quanto ci sei

DO#m       SI         LA
Non ti sai nascondere davvero
MI                       LA
Quante volte sei passata quante volte passerai
DO#m           SI              LA         FA#m
e ogni volta è sempre un colpo all’anima (all’anima)
MI                       LA
quante volte sei mancata quante volte mancherei
DO#m                SI          LA         FA#m
un colpo al cerchio ed un colpo all’anima (all’anima)

FA#m LA SI MI
MI SOL LA SI
SI LA SOL

MI                       LA
Quante volte sei passata quante volte passerai
DO#m          SI              LA        FA#m
e ogni volta è un colpo sordo all’anima (all’anima)
MI                       LA
quante volte sei mancata quante volte mancherai
DO#m                SI          LA        FA#m
un colpo al cerchio ed un colpo all’anima all’anima

Finale:
LA SI MI

|--9-9-9-9-9---12---|
|--9-9-9-9-9--------|
|--x-x-x-x-x--------| (x4)
|--x-x-x-x-x--------|
|--x-x-x-x-x--------|
|--x-x-x-x-x--------|           

|----------------------------------------------------|
|----------------------------------------------------|
|------------10----------------10--9--7--5-----------|
|--0---7--------------0---7--------------------------|
|----------------------------------------------------|
|----------------------------------------------------|

|----------------------------------------------------|
|----------------------------------------------------|
|------------10----------------10--9--7--5-----------|
|--0---7--------------0---7--------------------------|
|----------------------------------------------------|
|----------------------------------------------------|

|----------------------------------------------------|
|----------------------------------------------------|
|------------10----------------10--9--7--5-----------|
|--0---7--------------0---7--------------------------|
|----------------------------------------------------|
|----------------------------------------------------|

|-----------------------------|
|-----------------------------|
|--0--9--7------11---9v-------|
|------------9----------------|
|-----------------------------|
|-----------------------------|

Articoli correlati

L'autore del post

Foto dell'autore
Alberto Moneti 31 anni; pianista dall'età di 8 anni, organista, percussionista, ha conseguito la licenza in teoria e solfeggio al Conservatorio Cherubini di Firenze. Webmaster, operatore di marketing online e SEO. Twitter @albertomoneti