Agenzia Musicisti

ac/dc

Highway To Hell è la title track dell’album datato 1979 degli AC/DC: l’ispirazione nacque durante un’intervista al gruppo, quando ad Angus Young fu chiesto cosa si provasse ad essere costantemente in tour; la sua risposta fu “A fuckin’ highway to hell” (un’autostrada verso l’inferno). Curiosamente, questo aneddoto unito agli atteggiamenti dello stesso chitarrista che si mostrava (in foto e sul palco) indemoniato e con un paio di corna finte, alimentò le voci di chi vedeva gli AC/DC come un gruppo satanista.
Il brano è considerato una colonna portante dell’hard rock ed uno di quelli che più hanno contribuito a plasmare questo genere musicale.

Testo + accordi e tablatura per chitarra.

Highway To Hell Tablatura per Chitarra Lyrics Accordi

Intro:
A A A               D/F#  G      D/F#  G     D/F#  G     D/F#   A

 ----------------------------------------------|
 ------------3-3-3----3-3-3----3-3-3----3------|
 ---2-2-2----2-2-0----2-2-0----2-2-0----2--2-2-|
 ---2-2-2----0-0-0----0-0-0----0-0-0----0--2-2-|Play through verse
 ---0-0-0----------------------------------0-0-|
 --------------2-3------2-3------2-3-----------|

         D D/F# G              D D/F# G
Livin' easy,        livin' free,
D D/F# G       D/F#    A A
Season ticket on a one way ride
A A A           D D/F# G             D D/F# G
Askin' nothin,      leave me be.
D D/F# G     D/F#   A A
Takin' ev'rythin' in my stride.
         D D/F# G              D D/F# G
Don't need reason, don't need rhyme,
D D/F# G       D/F#    A A
Ain't nothin' I'd rather do.
A A A       D D/F# G             D D/F# G
Goin' down, party time.
D D/F# G        D/F#            E5
My friends are gonna be there too.

Chorus:
         A    A  A   D/A      G   --º
I'm on a highway to hell             Repeat
D/F#     A    A  A   D/A      G
On the   highway to hell          --º



         D D/F# G         D D/F# G
No stop signs, speed limit,
D D/F# G       D/F#    A A
Nobody's gonna slow me down.
A A A           D D/F# G             D D/F# G
Like a wheel, gonna spin it.
D D/F# G     D/F#   A A
Nobody's gonna mess me around.

D D/F# G              D D/F# G
Hey, Satan, pay'n' my dues,
D D/F# G       D/F#    A A
Playin' in a rockin' band.
A A A           D D/F# G             D D/F# G
Hey, Momma, look at me.
D D/F# G        D/F#            E5
I'm on my way to the promised land.

Chorus

Solo
--------5----------------------------------------------------|
-------5------5-5-----5-5----5-5-----5-5-7(8)(7)-------------|
---7(9)---7(9)----7(9)---7(9)----7(9)----7(8)(7)---5----7-5--|
----------------------------------------------------7-x------|
-------------------------------------------------------------|
-------------------------------------------------------------|

-----------------------5-------------5-------------------5-----------|
------------------------5-------------5-------------------5----------|
----------------2-4(5)----4(5)-2-0-----4(5)-4(5)--2-0-/4---4(5)--/18-|
---x-4(6)--2-----------------------0---------------------------------|
-------------3-0-----------------------------------------------------|
---------------------------------------------------------------------|

Ad-Lib Solo
---14(16)-12-------------12-12--------12--------------15-------------|
------------13-----------13-13--------13--15(17)-15-15--15-15-15(17)-|
--------------14-14\-----------14-13---------------------------------|
---------------------------------------------------------------------|
---------------------------------------------------------------------|
---------------------------------------------------------------------|
Pick Slide
-----------------------------------------------------12-13-12-13-12~-|
------------------13~~---13----13\----13~~-13---/18------------------|
----------------------------14---------------14----------------------|
---------------------------------------------------------------------|
---------------------------------------------------------------------|
--x\x\x\x\-----------------------------------------------------------|
Hold Bend and Sustain         Trill~~~~~~~~~~    Tremolo Picking
---18(20)--------------------------12(15)-------------/--------------|
------------------------------------------------------/--------------|
------------------------------------------------------2--------------|
------------------------------------------------------2--------------|
------------------------------------------------------0--------------|
------------------------------------------------------/--------------|

[AC/DC]
Agenzia Musicisti

Articoli correlati

L'autore del post

Foto dell'autore
Alberto Moneti 28 anni; pianista dall'età di 8 anni, organista, percussionista, ha conseguito la licenza in teoria e solfeggio al Conservatorio Cherubini di Firenze. Webmaster, operatore di marketing online e SEO. Twitter @albertomoneti