Agenzia Musicisti

Coldplay In My Place Guitar Piano Chords Tab

Intro (LEAD)

E---12---12--------9----9--
B---------------12---12----
G------9----9--------------
D--------------------------x3  (Riff 1)
A--------------------------
E--------------------------

E---12---12------8/9------9----9-----
B----------------------12---12-------
G------9-----------------------------
D------------------------------------ (Riff 2)
A------------------------------------
E------------------------------------

Then Start Over Again but Don't play the (Riff 2) Play This:

E---12---12------8/9------9----9-------
B----------------------12---12-----10--
G------9-------------------------------
D--------------------------------------
A--------------------------------------
E--------------------------------------

A  A/F#      F#m          C#m         E
  In my place, in my place, were lines that I couldn't
A             F#m      C#m   E
change, I was lost, oh yeah
A  A/F#      F#m         C#m           E
  I was lost, I was lost, crossed lines I shouldn't have
A              F#m      C#m    E
crossed, I was lost, oh yeah 		

D         A           E        D
Yeah, how long must you wait for him?
D         A          E       D
Yeah, how long must you pay for him?
D         A         E        D        E
Yeah, how long must you wait for him, for him

Intro Riff (1x)

A  A/F#      F#m           C#m     E                 A
  I was scared, I was scared, tired and underprepared
      F#m      C#m   E
But I wait for you
A   A/F#     F#m        C#m   E                        A
  If you go, if you go,   Leave me down here on my own
       F#m      C#m   E
Then I wait for you

	

D         A          E        D
Yeah, how long must you wait for him?
D         A           E       D
Yeah, how long must you pay for him?
D         A          E        D        E
Yeah, how long must you wait for him, for him

Intro Riff (2x)

       A       F#m     C#m
Saying please, please, please
     E                A
Come back and sing to me
   F#m   C#m
To me,   me
     E              A    F#m  C#m
Come on and sing it out, now, now
     E              A       F#m   C#m
Come on and sing it out, to me,   me
     E
Come back and sing it 

A     F#m          C#m         E
In my place, in my place, were lines that I couldn't
A                 F#m      C#m
change, and I was lost, oh yeah
E     A
Ooh yeah

Coldplay testi spartiti

Agenzia Musicisti

L'autore del post

Foto dell'autore
Alberto Moneti 28 anni; pianista dall'età di 8 anni, organista, percussionista, ha conseguito la licenza in teoria e solfeggio al Conservatorio Cherubini di Firenze. Webmaster, operatore di marketing online e SEO. Twitter @albertomoneti