Little Black Submarines è il brano rilasciato l’8 Ottobre 2012 come quarto singolo estratto da El Camino, il settimo album studio dei Black Keys.
E’ stato composto dal chitarrista e cantante Dan Auerbach originariamente come demo, il quale è stato poi rimodificato ed inciso 5 volte in altrettante versioni differenti. Quella definitiva è caratterizzata da due parti ben distinte e differenti tra loro: una prima acustica ed una seconda elettrica e molto più energica. E’ proprio questa seconda parte che è stata adottata così come era stata incisa in origine, mentre tutte le modifiche successive hanno comportato lo stravolgimento della prima.

Proponiamo la tablatura del pezzo suddivisa nelle due parti distinte. A fondo pagina trovate anche il testo con gli accordi di Little Black Submarines.

Part 1 (Acoustic) Guitar Tab Tablatura per Chitarra

Intro

   Am
e|---------------0---------------------0---------------------------|
B|-----1-------------1-----------1---------------1-------1-------0h|
G|-----------2-----------2---0h2-------------2-------2-------2-----|
D|-----2-------2-------2-------2---------------2-------2-------2---|
A|-0-------0-------0-------0-------0---0---0-------0-------0-------|
E|-----------------------------------------------------------------|

Verse

   Am              G               D               A
e|-------------------------------------2---------------------------|
B|h1---1---------0-----0-----0---0-----------3---0h2---2---------0h|  
G|-----------2-------------------------2---------------------2-----|  
D|-----2-------2-------0-------0---0-----------0-------2-------2---|
A|-0-------0-------------------------------0-------0-------0-------|
E|-----------------3-------3---------------------------------------|

   Am              G               A
e|-------------------------------------------------------0---------|
B|h1---1---------0-----0---------0-----2---------2-----------2-----|
G|-----------2---------------0---------------2-------2-----------0h|
D|-----2-------2-------0-------0-------2-------2-------2-------2---|
A|-0-------0-----------------------0-------0-------0-------0-------|
E|-----------------3-------3---------------------------------------|

   Am              G               D               A
e|-------------------------------------2---------------------------|
B|-----1---------0-----0---------0-----------3---0h2---2---------0h|  
G|h2---------2---------------0---------2-------2-------------2-----|  
D|-----2-------2-------0-------0---0-------0-----------2-------2---|
A|-0-------0---------------------------------------0-------0-------|
E|-----------------3-------3---------------------------------------|

   Am              G               A
e|-------------------------------------------------------0---------|
B|h1---1---------0-----0---------0-----2---------2-----------2-----|
G|-----------2---------------0---------------2-------2-----------0h|
D|-----2-------2-------0-------0-------2-------2-------2-------2---|
A|-0-------0-----------------------0-------0-------0-------0-------|
E|-----------------3-------3---------------------------------------| 

Chorus

   Am              G               D               A           C/B
e|-------------------------------------2---------------------------|
B|-----1---------0-----0---------0-----------3---0h2---2-----2---0-|  
G|h2---------2---------------0---------2-------2-------------------|  
D|-----2-------2-------0-------0---0-------0-----------2-----------|
A|-0-------0---------------------------------------0-------0---2---|
E|-----------------3-------3---------------------------------------|

   C               D               A
e|---------------------2---------------------------------0---------|
B|-----1---------0-----------3---0h2---2---------2---------------0h|
G|-----------0---------2---------------------2-------2-------2-----|
D|-----2-------2---0-----------0-------2-------2-------2-------2---|
A|-3-------3---------------0-------0-------0-------0-------0-------|
E|-----------------------------------------------------------------|

   Am               G              D               A
e|-----0-------------------------------2---------------------------|
B|h1-------------0-----0---------0-----------3---0h2---2---------0-|
G|-----------2---------------0---------2-------2-------------2-----|
D|-------------2-------0-------0---0-------0-----------2-------2---|
A|-0---0---0---------------------------------------0-------0-------|
E|------------------3-------3--------------------------------------|

   C               D               A                           C/B
e|---------------------2---------------------------------0---------|
B|-----1---------0-----------3---0h2---2---------2-----------2---0-|
G|-----------0---------2---------------------2-------2-------------|
D|-----2-------2---0-----------0-------2-------2-------2-----------|
A|-3-------3---------------0-------0-------0-------0-------0---2---|
E|-----------------------------------------------------------------|

   C               D               A
e|---------------------2-------------------------------------------|
B|-----1---------0-----------3---0h2---2---------2-------2-------2-|
G|-----------0---------2---------------------2-------2-------2-----|
D|-----2-------2---0-------0---0-------2-------2-------2-------2---|
A|-3-------3-----------------------0-------0-------0-------0-------|
E|-----------------------------------------------------------------|

   A
e|---------------------------------|
B|-----2---------2-------2---------|
G|-----------2-------2-------2---0h|
D|-----2-------2-------2-------2---|
A|-0-------0-------0-------0-------|
E|---------------------------------|

Part 2 (Electric + Solo) Guitar Tab Tablatura per Chitarra

Guitar 1
e|-5---5--5-5--3-3--3--3-3-|--------------5--5--3-3-|
B|-5---5--5-5--3-3--3--3-3-|-7---7--7-7-X-5--5--3-3-|
G|-5---5--5-5--4-4--4--4-4-|-7---7--7-7-X-6--6--4-4-|
D|-7---7--7-7--5-5--5--5-5-|-7---7--7-7-X-7--7--5-5-|
A|-7---7--7-7--5-5--5--5-5-|-5---5--5-5-X-7--7--5-5-|
E|-5---5--5-5--3-3--3--3-3-|--------------5--5--3-3-|

e|-5---5--5-5--3-3--3--3-3-|-5---5---5---5--|
B|-5---5--5-5--3-3--3--3-3-|-5---5---5---5--|
G|-5---5--5-5--4-4--4--4-4-|-5---5---5---5--|
D|-7---7--7-7--5-5--5--5-5-|-7---7---7---7--|
A|-7---7--7-7--5-5--5--5-5-|-7---7---7---7--|
E|-5---5--5-5--3-3--3--3-3-|-5---5---5---5--|

e|-5---5--5-5--3-3--3--3-3-|----------5--5--5-5--5-5-|
B|-5---5--5-5--3-3--3--3-3-|-7---7--7-5--5--5-5--5-5-|
G|-5---5--5-5--4-4--4--4-4-|-7---7--7-5--6--5-6--6-6-|
D|-7---7--7-7--5-5--5--5-5-|-7---7--7-7--7--7-7--7-7-|
A|-7---7--7-7--5-5--5--5-5-|-5---5--5-7--7--7-7--7-7-|
E|-5---5--5-5--3-3--3--3-3-|----------5--5--5-5--5-5-|

e|-5---5--5-5--3-3--3--3-3-|-5---5--5-5--5-5--5-5-|
B|-5---5--5-5--3-3--3--3-3-|-5---5--5-5--5-5--5-5-|
G|-5---5--5-5--4-4--4--4-4-|-5---5--5-5--5-5--5-5-|
D|-7---7--7-7--5-5--5--5-5-|-7---7--7-7--7-7--7-7-|
A|-7---7--7-7--5-5--5--5-5-|-7---7--7-7--7-7--7-7-|
E|-5---5--5-5--3-3--3--3-3-|-5---5--5-5--5-5--5-5-|

*-*-*-*-*-*-*-*-*-*-*-*-*-*-*-*-*-*-*-*-*-*-*-*
e|-5---5--5-5--3-3--3--3-3-|--------------5--5--3-3-|
B|-5---5--5-5--3-3--3--3-3-|-7---7--7-7-X-5--5--3-3-|
G|-5---5--5-5--4-4--4--4-4-|-7---7--7-7-X-6--6--4-4-|
D|-7---7--7-7--5-5--5--5-5-|-7---7--7-7-X-7--7--5-5-|
A|-7---7--7-7--5-5--5--5-5-|-5---5--5-5-X-7--7--5-5-|
E|-5---5--5-5--3-3--3--3-3-|--------------5--5--3-3-|

e|-5---5--5-5--3-3--3--3-3-|-5---5---5---5--|
B|-5---5--5-5--3-3--3--3-3-|-5---5---5---5--|
G|-5---5--5-5--4-4--4--4-4-|-5---5---5---5--|
D|-7---7--7-7--5-5--5--5-5-|-7---7---7---7--|
A|-7---7--7-7--5-5--5--5-5-|-7---7---7---7--|
E|-5---5--5-5--3-3--3--3-3-|-5---5---5---5--|

Guitar 2
e|---------------------------------|-----------------------------------|
B|--5--5-----5--5-----5--5-----7b--|--5--5-----5--------5--5----5--5---|
G|--7b-7b----7b-7b----7b-7b----7b--|--7b-7b----7bp5-----7b-7b---7b-7b--|
D|---------------------------------|----------------7------------------|
A|---------------------------------|-----------------------------------|
E|---------------------------------|-----------------------------------|
*-*-*-*-*-*-*-*-*-*-*-*-*-*-*-*-*-*-*-*-*-*-*-*

Guitar 1
e|-5---5--5---3---3--3--------------5---5--5-|
B|-5---5--5---3---3--3---7---7--7---5---5--5-|
G|-5---5--5---4---4--4---7---7--7---6---6--6-|
D|-7---7--7---5---5--5---7---7--7---7---7--7-|
A|-7---7--7---5---5--5---5---5--5---7---7--7-|
E|-5---5--5---3---3--3--------------5---5--5-|
  Treasure maps...

e|-5---5--5---3---3--3---5---5--5--5--5--5--5--|
B|-5---5--5---3---3--3---5---5--5--5--5--5--5--|
G|-5---5--5---4---4--4---5---5--5--5--5--5--5--|
D|-7---7--7---5---5--5---7---7--7--7--7--7--7--|
A|-7---7--7---5---5--5---7---7--7--7--7--7--7--|
E|-5---5--5---3---3--3---5---5--5--5--5--5--5--|

                            Guitar 2
                            e|---------------------|
                            B|---------------------|
                            G|--7h9p7\5------------|
                            D|---------------------|
                            A|----------5h7p5------|
                            E|----------------8--5-|

Guitar 1
e|-5---5--5---3---3--3--------------5---5--5-|
B|-5---5--5---3---3--3---7---7--7---5---5--5-|
G|-5---5--5---4---4--4---7---7--7---6---6--6-|
D|-7---7--7---5---5--5---7---7--7---7---7--7-|
A|-7---7--7---5---5--5---5---5--5---7---7--7-|
E|-5---5--5---3---3--3--------------5---5--5-|

e|-5---5--5---3---3--3---5---5--5--5--5--5--5--|
B|-5---5--5---3---3--3---5---5--5--5--5--5--5--|
G|-5---5--5---4---4--4---5---5--5--5--5--5--5--|
D|-7---7--7---5---5--5---7---7--7--7--7--7--7--|
A|-7---7--7---5---5--5---7---7--7--7--7--7--7--|
E|-5---5--5---3---3--3---5---5--5--5--5--5--5--|

                        Guitar 2
                        e|-----------|
                        B|-----------|
                        G|-7bbbbbbb\-|
                        D|-----------|
                        A|-----------|
                        E|-----------|

e|-5---5--5---3---3--3--------------5---5--5-|
B|-5---5--5---3---3--3---7---7--7---5---5--5-|
G|-5---5--5---4---4--4---7---7--7---6---6--6-|
D|-7---7--7---5---5--5---7---7--7---7---7--7-|
A|-7---7--7---5---5--5---5---5--5---7---7--7-|
E|-5---5--5---3---3--3--------------5---5--5-|

e|-5---5--5---3---3--3---5---5--5--5--5--5--5--|
B|-5---5--5---3---3--3---5---5--5--5--5--5--5--|
G|-5---5--5---4---4--4---5---5--5--5--5--5--5--|
D|-7---7--7---5---5--5---7---7--7--7--7--7--7--|
A|-7---7--7---5---5--5---7---7--7--7--7--7--7--|
E|-5---5--5---3---3--3---5---5--5--5--5--5--5--|

Guitar 2
e|---------------------------------------------------|
B|---------------------------------------------------|
G|-----------------------------7h9p7\5---------------|
D|---------------------------------------------------|
A|--------7-----5--7--5-----------------5h7p5--------|
E|--5--8----------------5-8-5------------------8--5--|
 ...lost  and  out  of  ti-ime

Guitar 1
e|-5---5--5---3---3--3--------------5---5--5-|
B|-5---5--5---3---3--3---7---7--7---5---5--5-|
G|-5---5--5---4---4--4---7---7--7---6---6--6-|
D|-7---7--7---5---5--5---7---7--7---7---7--7-|
A|-7---7--7---5---5--5---5---5--5---7---7--7-|
E|-5---5--5---3---3--3--------------5---5--5-|

e|-5---5--5---3---3--3---5---5--5--5--5--5--5--|
B|-5---5--5---3---3--3---5---5--5--5--5--5--5--|
G|-5---5--5---4---4--4---5---5--5--5--5--5--5--|
D|-7---7--7---5---5--5---7---7--7--7--7--7--7--|
A|-7---7--7---5---5--5---7---7--7--7--7--7--7--|(x3)
E|-5---5--5---3---3--3---5---5--5--5--5--5--5--|

*-*-*-*-*-*-*-*-*-*-*-*-*-*-*-*-*-*-*-*-*-*-*-*
e|--5--5---------3--3---------------------5--5--------|
B|--5--5---------3--3---------7--7--------5--5--------|
G|--5--5---------4--4---------7--7--------5--5--------|
D|--7--7---------5--5---------7--7--------7--7--------|
A|--7--7---------5--5---------5--5--------7--7--------|
E|--5--5---------3--3---------------------5--5--------|

Guitar 1
e|--5--5---------3--3--------5--5----|
B|--5--5---------3--3--------5--5----|
G|--5--5---------3--3--------5--5----|
D|--7--7---------5--5--------7--7----|
A|--7--7---------5--5--------7--7----|
E|--5--5---------3--3--------5--5----|

Guitar 2
e|---------------------------------|------------------|
B|--5--5-----5--5-----5--5-----7b--|--5--5-----5--5---|
G|--7b-7b----7b-7b----7b-7b----7b--|--7b-7b----7b-7b--|
D|---------------------------------|------------------|
A|---------------------------------|------------------|
E|---------------------------------|------------------|
*-*-*-*-*-*-*-*-*-*-*-*-*-*-*-*-*-*-*-*-*-*-*-*

e|-5---5--5---3---3--3--------------5---5--5-|
B|-5---5--5---3---3--3---7---7--7---5---5--5-|
G|-5---5--5---4---4--4---7---7--7---6---6--6-|
D|-7---7--7---5---5--5---7---7--7---7---7--7-|
A|-7---7--7---5---5--5---5---5--5---7---7--7-|
E|-5---5--5---3---3--3--------------5---5--5-|
                                               (x2)
e|-5---5--5---3---3--3---5---5--5--5--5--5--5--|
B|-5---5--5---3---3--3---5---5--5--5--5--5--5--|
G|-5---5--5---4---4--4---5---5--5--5--5--5--5--|
D|-7---7--7---5---5--5---7---7--7--7--7--7--7--|
A|-7---7--7---5---5--5---7---7--7--7--7--7--7--|
E|-5---5--5---3---3--3---5---5--5--5--5--5--5--|

e|----------------------------------------------------------------------|
B|----------------------------------------------------------------------|
G|-14---14-12-----------------------------------------------------------|
D|------------14-12-14--14--14--14-12-----14---14-12--------------------|
A|------------------------------------15-------------15-12--12--12--12~-|
E|----------------------------------------------------------------------|

e|-----------------------------------|
B|-----------------------------------|
G|-----------------------12----14hb\-|
D|------------14-13-12------14-------|
A|-15-14-12--------------------------|
E|-----------------------------------|

e|---------------------------------------------------------------------------------|
B|---------------------------------------------------------------------------------|
G|-----------12---------12------12------12------12------12------12------12------12-|
D|-14-----14----14-12/14---12/14---12/14---12/14---12/14---12/14---12/14---12/14---|
A|----15---------------------------------------------------------------------------|
E|---------------------------------------------------------------------------------|

e|----------------------------------------------------------------------------------|
B|----------------------------------------------------------13----------------------|
G|-/12-14---/12-14---/12-14---/12-14----/12-14----/12-14--------14p12---------------|
D|-------14-------14-------14--------14--------14-------14------------14-12h14-14---|
A|----------------------------------------------------------------------------------|
E|----------------------------------------------------------------------------------|

e|------------------|
B|------------------|
G|------------------|
D|-14p12\10---------|
A|----------12--12~-|
E|------------------|

Guitar 1
e|--5--5---------3--3---------------------5--5--------|
B|--5--5---------3--3---------7--7--------5--5--------|
G|--5--5---------4--4---------7--7--------5--5--------|
D|--7--7---------5--5---------7--7--------7--7--------|
A|--7--7---------5--5---------5--5--------7--7--------|
E|--5--5---------3--3---------------------5--5--------|

e|--5--5---------3--3--------5--5----------5--5------|
B|--5--5---------3--3--------5--5----------5--5------|
G|--5--5---------3--3--------5--5----------5--5------|
D|--7--7---------5--5--------7--7----------7--7------|
A|--7--7---------5--5--------7--7----------7--7------|
E|--5--5---------3--3--------5--5----------5--5------|

Guitar 2
e|---------------------------------|-----------------------------------|
B|--5--5-----5--5-----5--5---7-7b--|--5--5-----5--5--------------------|
G|--7b-7b----7b-7b----7b-7b--7-7b--|--7b-7b----7b-7b--7bp5-----7bp5----|
D|---------------------------------|-----------------------7--------7--|
A|---------------------------------|-----------------------------------|
E|---------------------------------|-----------------------------------|

b - bending
~ - vibrato
/ - slide up
\ - slide down
h - hammer-on
p - pull-off

Little Black Submarines Guitar Chords Accordi per Chitarra Testo

Am

Am          G
Little black submarines
D      A
Operator please
Am         G       A
Put me back on the line
Am           G
Told my girl I'd be back
D      A
Operator please
Am       G          A
This is wrecking my mind

Am         G
Oh, can it be
    D              A
The voices calling me
A - B - C         D      A  
They get lost and out of time
  Am                G
I should've seen it glow
    D         A
But everybody knows
       C      D        A
That a broken heart is blind
A - B - C     D        A
That a broken heart is blind

Pick you up, let you down
When I wanna go
To a place I can hide
You know me, I had plans
But they just disappeared
To the back of my mind

Oh, can it be
The voices calling me
They get lost and out of time
I should've seen it glow
But everybody knows
That a broken heart is blind
That a broken heart is blind

Am-G-D-A
Am-G-A   x3

Treasure maps for a change
Operator please
Call me back when it's time
Stolen friends and disease
Operator please
Pass me back to my mind

Oh, can it be
The voices calling me
They get lost and out of time
I should've seen it glow
But everybody knows
That a broken heart is blind
That a broken heart is blind
That a broken heart is blind

Am-G-D-A
Am-G-A   x4

Articoli correlati

L'autore del post

Foto dell'autore
Alberto Moneti 29 anni; pianista dall'età di 8 anni, organista, percussionista, ha conseguito la licenza in teoria e solfeggio al Conservatorio Cherubini di Firenze. Webmaster, operatore di marketing online e SEO. Twitter @albertomoneti