White Wedding è la seconda traccia dell’album di debutto da solista di Billy Idol, eponimo datato 1982, dal quale è stata lanciata come secondo singolo dopo l’uscita dell’altro brano Hot In The City. Con White Wedding, un anno dopo la sua pubblicazione l’album entrò nella Top40 delle classifiche americane.
Il titolo originale della canzone è in realtà “White Wedding (Part 1)”, poichè esiste una continuazione seppur poco conosciuta del brano che venne pubblicata solamente nel 45 giri del singolo stesso.
Billy Idol compose questa canzone per manifestare il suo disappunto nei confronti del fidanzato di sua sorella, reo di averla messa incinta prima del matrimonio tra i due.
Da segnalare il controverso videclip di questa canzone, in cui lo stesso Idol si sposa in una coreografia punk-gotica costringendo la propria sposa ad indossare nell’occasione una fede nuziale di filo spinato; ancora più controversa la reazione dei presenti dinanzi a tale maltrattamento: un saluto generale in perfetto stile fascista.

Testo con accordi + tablatura per chitarra di White Wedding.

White Wedding Guitar Tab Tablatura per Chitarra

  riff
E|2---------------|--------2-------|0---------------|2---------------||
B|----3-----------|----3-------3---|0---------------|3---------------||
G|--------4-------|4---------------|1---------------|2---------------||
D|------------4---|----------------|2---------------|0---------------||
A|----------------|----------------|----------------|----------------||
E|----------------|----------------|----------------|----------------||
  B5                                E5               D5

E|2---------------|---------2------|5---------------|4---------------||
B|----3-----------|----3-------3---|7---------------|5---------------||
G|--------4-------|4---------------|7---------------|4---------------||
D|------------4---|----------------|7---------------|----------------||
A|----------------|----------------|----------------|----------------||
E|----------------|----------------|----------------|----------------||
  B5                                E5               D5

  verse 2 riff
E|----------------|----------------||
B|----3----3------|3---3---2-2-2-3-||
G|----2----2------|2---2---2-2-2-3-||
D|----------------|----------------||
A|----------------|----------------||
E|----------------|----------------||

  interlude

E|2---------------|--------2-------|0---------------|2---------------||
B|----3-----------|----3-------3---|0---------------|3---------------||
G|--------4-------|4---------------|1---------------|2---------------||
D|------------4---|----------------|2---------------|0---------------||
A|----------------|----------------|----------------|----------------||
E|----------------|----------------|----------------|----------------||
  B5                                E5               D5
E|2---------------|--------2-------|5---------------|4---------------||
B|----3-----------|----3-------3---|7---------------|5---------------||
G|--------4-------|4---------------|7---------------|4---------------||
D|------------4---|----------------|7---------------|----------------||
A|----------------|----------------|----------------|----------------||
E|----------------|----------------|----------------|----------------||
  B5                                E5               D5
E|2---------------|--------2-------|2---------------|--------2-------||
B|----3-----------|----3-------3---|----3-----------|----3-------3---||
G|--------4-------|4---------------|--------4-------|4---------------||
D|------------4---|----------------|------------4---|----------------||
A|----------------|----------------|----------------|----------------||
E|----------------|----------------|----------------|----------------||
  B5                                E5
E|2---------------|---------2------|2---------------|----------------||
B|----3-----------|----3-------3---|----3-----------|--------5---3---||
G|--------4-------|4---------------|--------4---2---|1---4-----------||
D|------------4---|----------------|----------------|----------------||
A|----------------|----------------|----------------|----------------||
E|----------------|----------------|----------------|----------------||
  B5                                D5               E5
E|----------------||
B|2---------------||
G|---2-------4----||
D|-------4--------||
A|----------------||
E|----------------||

White Wedding Testo Accordi Chords Lyrics

Intro:
Bm	Bm	Bm	E	D
Bm	Bm	D	E	Bm

Bm					A	E
Hey little sister what have you done
Bm					A	E
Hey little sister who's the only one
Bm
Hey little sister who's your superman
A
Hey little sister who's the one you want
Bm
Hey little sister shot gun!

A		E
It's a nice day to start again
Bm	E		D
It's a nice day for a white wedding
Bm	E		D	Bm
It's a nice day to start again.

Bm					A	E
Hey little sister what have you done
Bm					A	E
Hey little sister who's the only one
Bm
I've been away for so long (so long)
A
I've been away for so long (so long)
Bm
I let you go for so long

Chorus and Intro
Bm	Bm	E	D
Bm	Bm	D	E
Bm	Bm	E	E
Bm	Bm	D	E	

Bm	Bm	A
(Pick it up)
E		Bm 	Bm
Take me back home

There is nothin' fair in this world
There is nothin' safe in this world
And there's nothin' sure in this world
And there's nothin' pure in this world
Look for something left in this world
Start again
Come on

It's a nice day for a white wedding
It's a nice day to start again.
It's a nice day for a white wedding
It's a nice day to start again

Articoli correlati

L'autore del post

Foto dell'autore
Alberto Moneti 29 anni; pianista dall'età di 8 anni, organista, percussionista, ha conseguito la licenza in teoria e solfeggio al Conservatorio Cherubini di Firenze. Webmaster, operatore di marketing online e SEO. Twitter @albertomoneti