I’m On Fire è una canzone incisa col celebre album Born In The U.S.A. (1984) e poi rilasciata nel 1985 come quarto singolo estratto da esso.
Fu composta nel 1982 all’inizio delle sessioni per la stesura dell’album, improvvisando su di un testo che era previsto per un’altra canzone, “Spanish Eyes”. Ne nacque una base vagamente rockabilly seppur lenta con un accompagnamento di sintetizzatori: era una delle primissime volte che Bruce Springsteen si avvaleva dell’utilizzo di questo strumento, che poi avrebbe avuto un ruolo decisivo all’interno dell’album stesso.
I’m On Fire ha avuto un buonissimo successo in classifica, sia in America che in altre parti del mondo, ma nei concerti del Boss non ha mai trovato troppo spazio, venendo eseguita solo sporadicamente.
Alcune cover interessanti sono state incise per questo pezzo: tra di esse si segnala quella di Johnny Cash nell’album tributo Badlands: A Tribute to Bruce Springsteen’s Nebraska (2000).

Testo e accordi + tablatura per chitarra dell’arpeggio.

I’m On Fire Testo Accordi Lyrics Chords

Verse 1:

Esus2
Hey little girl, is you daddy home
                               A
Did he go and leave you all alone
                 C#m     A  B    Esus2
I've got a bad desire, Oh I'm on fire

Verse 2:

Esus2
Tell me now baby is he good to you
                                        A
And can he do to you the things that I do
                  C#m  A   B   Esus2
I can take you higher Oh, I'm on fire

Play Intro Twice

Verse 3: (play same picking pattern for this verse)

A (2 bars)
Sometimes it's like someone took a knife baby edgy and dull
Esus2 (2 bars)                                       C#m (four bars)
And put a six knife valley through the middle of my skull

Verse 4:

Esus2
At night I wake up with the sheets soaking wet
                                                                A
And a freight train running through the middle of my head, and you
              C#m    A    B    Esus2
You cool my desire, Oh, I'm on fire

A    B      Esus2 (Last line of verse)
Oh, I'm on fire
A    B      Esus2
Oh, I'm on fire

A    B     Esus2

Fade out with intro

Tablatura per Chitarra Arpeggio Guitar Tab

Intro: x2 (guitar fades in)

   Esus2
e|----------------|---------------|---------------|---------------|
B|----------------|---------------|---------------|---------------|
G|--------4-------|-------4-------|-------4-------|-------4-------|
D|------4---4---4-|-----4---4---4-|-----4---4---4-|-----4---4---4-|
A|----2-------4---|---2-------4---|---2-------2---|---2-------2---|
E|-0--------------|0--------------|0--------------|0--------------|

  C#m
e|----------------|---------------|---------------|---------------|
B|--------5-------|-------5-------|-------5-------|-------5-------|
G|------6---6---6-|-----6---6---6-|-----6---6---6-|-----6---6---6-|
D|----6-------6---|---6-------6---|---6-------6---|---6-------6---|
A|-4--------------|4--------------|4--------------|4--------------|
E|----------------|---------------|---------------|---------------|

Verse:

   Esus2
e|----------------|---------------|---------------|---------------|
B|----------------|---------------|---------------|---------------|
G|--------4-------|-------4-------|-------4-------|-------4-------|
D|------4---4---4-|-----4---4---4-|-----4---4---4-|-----4---4---4-|
A|----2-------4---|---2-------4---|---2-------2---|---2-------2---|
E|-0--------------|0--------------|0--------------|0--------------|

   A                                C#m
e|----------------|---------------|---------------|---------------|
B|--------2-------|-------2-------|-------5-------|-------5-------|
G|------2---2---2-|-----2---2---2-|-----6---6---6-|-----6---6---6-|
D|----2-------2---|---2-------2---|---6-------6---|---6-------6---|
A|-0--------------|0--------------|4--------------|4--------------|
E|----------------|---------------|---------------|---------------|

   A                B              Esus2
e|----------------|---------------|---------------|---------------|
B|--------2-------|-------4-------|-------0-------|---------------|
G|------2---2---2-|-----4---4---4-|------(4)------|-------4-------|
D|----2-------2---|---4-------4---|-----4---4---4-|-----4---4---4-|
A|-0--------------|2--------------|---2-------4---|---2-------4---|
E|----------------|---------------|0--------------|0--------------|

Play Intro Twice

Articoli correlati

L'autore del post

Foto dell'autore
Alberto Moneti 29 anni; pianista dall'età di 8 anni, organista, percussionista, ha conseguito la licenza in teoria e solfeggio al Conservatorio Cherubini di Firenze. Webmaster, operatore di marketing online e SEO. Twitter @albertomoneti