Femme Fatale è la terza traccia del Lato A di The Velvet Underground & Nico (1967), lo storico debutto discografico della band americana accompagnato dalla voce della cantante tedesca Nico. Fu pubblicata prima dell’uscita dello stesso album, nel dicembre 1966 come B-Side del singolo Sunday Morning.
Il testo fu scritto da Lou Reed su esplicita richiesta del produttore Andy Warhol, il quale chiese una canzone su Edie Sedgwick, una delle sue modelle meglio conosciute come “Warhol superstars” che aveva recitato in alcuni suoi cortometraggi.

Testo, accordi e tablatura con l’arpeggio di chitarra.

Velvet Underground Femme Fatale Guitar Tab Tablatura

  {Cmaj7}       {Fmaj7}
--------3-3------------3-3-------------|
------5-----5--------5-----5-----------|
----4---------4----4---------4---------|  x2
--5--------------3---------------------|
---------------------------------------|
---------------------------------------|

Here        she comes
  {Cmaj7}       {Fmaj7}
--------3-3------------3-3-------------|
------5-----5--------5-----5-----------|
----4---------4----4---------4---------|
--5--------------3---------------------|
---------------------------------------|
---------------------------------------|

you'd better watch your step
  {Cmaj7}               {Fmaj7}
--------3-3-------------------3-3-------------|
------5-----5---------------5-----5-----------|
----4---------4-----------4---------4---------|
--5---------------------3---------------------|
----------------------------------------------|
----------------------------------------------|

 She's going to  break your heart in -
  {Cmaj7}       {Fmaj7}
--------3-3-------------8-8-------------|
------5-----5--------10-----10----------|
----4---------4-----9----------9--------|
--5--------------10--------------10-----|
----------------------------------------|
----------------------------------------|

- two,      it's true
  {Dm}           {G}
--------5-5------------3-3--------------|
------6-----6--------3-----3------------|
----7---------7----4---------4----------|
--7--------------5----------------------|
----------------------------------------|
----------------------------------------|

Accordi per Chitarra Guitar Chords Testo Lyrics

Cmaj7    Fmaj7
Here she comes
Cmaj7                 Fmaj7
You better watch your step
Cmaj7       F                   Dm            G
She's gonna break your heart in two, yes it's true
Cmaj7               Fmaj7
It's not hard to realize
Cmaj7                            Fmaj7
Just look into her false colored eyes
Cmaj7            F                  Dm           G
She'll bring you up just to put you down, what a clown

CHORUS
              C                                       F
Cos everybody knows                  (she's a femme fatale)
                       C                              F
The things she does to please        (she's a femme fatale)
                    C                                 F
She's just a little tease            (she's a femme fatale)
                     Dm                         Bb             G
Just see the way she walks and hear the way she talks

You're written in her book
Number 47 have a look
She's going to play you for a fool, it's true
The voices in the street
Before you start you're already beat
She's going to smile just to make you frown, what a clown

CHORUS

CHORUS

Articoli correlati

L'autore del post

Foto dell'autore
Alberto Moneti 29 anni; pianista dall'età di 8 anni, organista, percussionista, ha conseguito la licenza in teoria e solfeggio al Conservatorio Cherubini di Firenze. Webmaster, operatore di marketing online e SEO. Twitter @albertomoneti