Incisa nel 1998 con l’album Mi Fai Stare Bene, autoprodotto dallo stesso Biagio Antonacci nonchè il suo sesto lavoro, Iris (Tra Le Tue Poesie) è una delle canzoni più famose e rappresentative del cantautore milanese.
E’ stata da questo album estratta come terzo singolo dopo due altrettanto grandi successi quali la title track Mi Fai Stare Bene e l’altra Quanto Tempo E Ancora. In Italia è stato riproposto nel 2009 con l’antologia Il Cielo Ha Una Porta Sola, mentre una versione (omonima) è stata incisa e distribuita anche per il mercato spagnolo.
Questo brano, a suggello della fama ottenuta, ha un paio di anni dopo dato il titolo alla casa discografica fondata dallo stesso Antonacci.

Testo con gli accordi e la tablatura per chitarra di Iris.

Iris Tra Le Tue Poesie Accordi per Chitarra Guitar Chords Tab Spartito

   [DO#m]   [SI]      [LA]      [SI]     
e|---------|---------|---------|---------|
B|-5-----5-|-4-----4-|-2-----2-|-4-----4-|
D|-----6---|-----4---|-----2---|-----4---|
G|---6-----|---4-----|---2-----|---4-----|
A|---------|---------|---------|---------|
E|---------|---------|---------|---------|

DO#m     SI           LA
IRIS TRA LE TUE POESIE
      SI         DO#m      SI      LA   SI
HO TROVATO QUALCOSA CHE PARLA DI ME
DO#m           SI           LA
LE HAI SCRITTE TUTTE COL BLU
   SI          DO#m  SI         LA   SI
SU PEZZI DI CARTA TROVATI QUA E LÀ
      DO#m        SI
DIMMI DOVE, DIMMI COME
          LA          SI          DO#m
E CON CHE COSA ASCOLTAVI LA MIA VITA
           SI          LA   SI
QUANDO NON STAVO CON TE
        DO#m          SI       LA            SI        DO#m
E CHE SAPORI E CHE UMORI CHE DOLORI E CHE PROFUMI RESPIRAVI
           SI          LA   SI
QUANDO NON STAVI CON ME
DO#m       SI       LA    SI
IRIS MI VIENE DA DIRTI TI AMO
         DO#m        SI    MI   MI4   MI   MI4
E LO SAI NON L'HO DETTO MAI

         DO#m  FA#m7   SI7            MI
QUANTA VITA C'È QUANTA VITA INSIEME A TE
        DO#m  FA#m   SI7            MI
TU CHE AMI E TU CHE NON LO RINFACCI MAI
        DO#m  FA#m7    SI7         MI
E NON SMETTI MAI DI MOSTRARTI COME SEI
         DO#m  FA#m7      SI7            MI
QUANTA VITA C'È IN QUESTA VITA INSIEME A TE

      [FA#m]    [SI7] [MI]      [DO#m7]       [FA#m]   [SI7]    [MI]                 
e|-------0-|---------5-4-|---0-2-0-----|---------0-|---------5-4---|
B|---------|-0-2-0-2-----|-------------|-----------|-0-2-0-2-------|
D|---1-2---|-------------|-------------|-----1-2---|---------------|
G|-4-------|-------------|-------------|---4-------|---------------|
A|---------|-------------|-------------|-4---------|---------------|
E|---------|-------------|-------------|-----------|---------------|

Il mio nome....dillo piano...
lo vorrei sentire sussurrare adesso...
che ti sono vicino
la tua voce, mi arriva,
suona come un'onda che mi porta il mare,
ma che cosa di più....
Iris ti ho detto ti amo...
e se questo ti piace rimani con me

Quanta vita c'è.. quanta vita insieme a te
Tu che ami e... tu che non lo rinfacci mai
e non smetti mai di mostrarti come sei
quanta vita c'è in questa vita insieme a te

          [FA#m][SOL#m]         [LA][SI7]           
e|-0-|-------|---0---|-0-----|---4-|
B|---|-4-2-0-|-2---4-|---4-2-|-0---|
D|---|-------|-------|-------|-----|
G|---|-------|-------|-------|-----|
A|---|-------|-------|-------|-----|
E|---|-------|-------|-------|-----|

dimmi dove, dimmi come...
e con che cosa ascoltavi la mia vita,
quando non stavi con me
e i sapori e gli umori che dolori
e che profumi respiravi,
quando non stavi con me,
Irisi ti Amo davvero
e se questo ti piace, rimani con me

[SI] [LA] [SI] [DO#m] [SI] [LA] [SI] [DO#m]

Articoli correlati

L'autore del post

Foto dell'autore
Alberto Moneti 29 anni; pianista dall'età di 8 anni, organista, percussionista, ha conseguito la licenza in teoria e solfeggio al Conservatorio Cherubini di Firenze. Webmaster, operatore di marketing online e SEO. Twitter @albertomoneti