Agenzia Musicisti

noemi

Uno dei singoli di maggior successo del 2009, L’Amore si Odia è il secondo rilasciato da Sulla Mia Pelle, album di debutto di Noemi. E’ cantata in duetto assieme a Fiorella Mannoia ed incisa anche nell’album di quest’ultima Ho Imparato A Sognare, in veste di bonus track. Ha raggiunto sia la vetta delle classifiche dei singoli sia quella dei download digitali, compreso il primo posto in quanto ad airplay radiofonico.

Testo con accordi e tablatura per chitarra.

L’Amore Si Odia Testo Accordi per Chitarra Guitar Chords Lyrics

INTRO 1: (sola chitarra)
  [MIm7]          [DO9+]           [SIm7]            [LAm7][LAm]  [SI7add11]
e-----0----------|-----0----------|-----2----------|---------------0-0--0-|
B-----3----------|-----3----------|-----3----------|-1-1-----------0-0--0-|
G-0---4----------|-0---4----------|-----2----------|-0-0-2----2-2--2-2--2-|
D-2---2----------|-2---2----------|-4---4----------|-2-2-2----2-2--1-1----|
A-2---2----------|-3--------------|-2--------------|-0---0----0-0--2-2----|
E-0--------------|----------------|----------------|----------------------|

INTRO 2: (completa)
  [MIm7]              [DO9+]
e-----0-------0-----|-----0-------0-----|
B-----3--------3----|-----3--------3----|
G-----4---------4---|-----4---------4---|
D-2-2-2----------2--|-2-2-2----------2--|
A-2-2-2-------------|-3-3----3-3--------|
E-0-0----0-0--------|-------------------|

[SIm7]              [LAm7][LAm]  [SI7add11]
e-----2-------0-----|---------------0-0--0-|
B-----3--------3----|-1-1-----------0-0--0-|
G-----2---------0---|-0-0-2----2-2--2-2--2-|
D-4-4-4----------4--|-2-2-2----2-2--1-1----|
A-2-2----2-2--------|-0---0----0-0--2-2----|
E-------------------|----------------------|

(Noemi)
[MIm] Vieni qua, vieni qua, che ti dovevo [DO7+] dire
tutte quelle [SIm7] cose che, cose che, non hai voluto
sen[LAm7]tire soffrire go[DO]dere o fi[SI7]nire.

[MIm] Vieni qua, vieni qua, sempre la stessa s[DO7+]toria
un equilibrio ins[SIm7]tabile, instabile,
che crolla al vento di u[LAm7]na nuova gloria, l'a[DO]more si [SI7] odia.

[DO7+] Ah, se fosse così [REsus2] fa__cile,
[DO9+] ah, se fosse ancora innamo[SI7]rato di me

Ed ogni petalo [DO7+] sai, si [SI7] finge di essere una [MIm] rosa
per ogni goccia vor[DO7+]rei di[SI7]luvio sopra ogni [MIm] cosa
ma tu non meriti [LAm] più un [SI] battito di questa [MIm] vita
per tutto quello che [LAm] conta, se conta, sei [SI] come colla tra le [MIm] dita.
[DO][SI]

(BRIDGE +2)

(Mannoia)
[FA#m] Vieni qua, vieni qua, io ti volevo [RE7+] bene,
ma riparlarne è i[DO#m7]nutile, inutile,
non ha più senso pen[SIm7]sarti, capire, pro[RE]vare o spa[DO#7]rire

[FA#m] Vieni qua, vieni qua, le solite pa[RE7+]role
di un sentimento f[DO#m7]ragile, fragile,
come l'asfalto con[SIm7]suma la suola, l'a[RE]more si [DO#7] odia.

(Noemi-Mannoia)
[RE7+] Ah, se fosse tutto [MI] facile
[RE9+] ah, se fosse ancora innamo[DO#7]rata di te

Ed ogni petalo [RE7+] sai, si [DO#7] finge di essere una [FA#m] rosa
per ogni goccia vor[RE7+]rei di[DO#7]luvio sopra ogni [FA#m] cosa
ma tu non meriti [SIm] più un [DO#] battito di questa [FA#m] vita
che tutto quello che [SIm] conta, se conta, sei [DO#] come colla sulle [FA#m] dita.

Ed ogni petalo [RE7+] sai, si [DO#7] finge di essere una [FA#m] rosa
per ogni goccia vor[RE7+]rei di[DO#7]luvio sopra ogni [FA#m] cosa, ogni cosa
ma tu non meriti [SIm] più un [DO#] attimo della mia [FA#m] vita
per tutto quello che [SIm] conta, se conta,
sei [DO#] la mia impronta sulle [FA#m] dita.

[Noemi & Fiorella Mannoia]
Agenzia Musicisti

articoli correlati

l'autore del post

Foto dell'autore
Alberto Moneti 28 anni; musicista a tuttotondo, pianista dall'età di 8 anni, organista, percussionista, ha conseguito la licenza in teoria e solfeggio al Conservatorio Cherubini di Firenze. Webmaster, crea e gestisce siti personali e professionali.