Agenzia Musicisti

pearl jam

Alive è il singolo d’esordio dei Pearl Jam, pubblicato nel 1991, primo estratto dall’album Ten. La canzone era stata originariamente concepita come un pezzo strumentale dal titolo Dollar Short, fino a quando il cantante Eddie Vedder non decise di accompagnare un testo alla musica scritta dal chitarrista Stone Gossard. Questo testo racconta la storia di un ragazzo sconvolto dalla notizia che l’uomo che credeva suo padre è in realtà il patrigno.
Il lungo assolo finale di chitarra, opera dell’altro chitarrista Mike McCready, è considerato dalla critica musicale uno dei più belli di sempre. Alive non fu un grande successo in classifica, ma è sempre rimasto uno dei pezzi preferiti dai fan dei Pearl Jam e più richiesti durante i loro concerti.

Pearl Jam Alive Testo Accordi Lyrics Chords

  (A  G) X4       F   G C

A   G
  Son, she said
A              G
  have I got a little story for you
A   G                         A     G
    What you thought was your daddy   was nothin' but a...
A   G                      A             G
    While you were sittin' home alone at age thirteen
A   G                   A    G
    Your real daddy was dyin'
                   F      G C
  sorry you didn't see him
          F             G C
  but I'm glad we talked...

(Chorus) :
   E    G      D          A
Oh I... ooooh, I'm still alive
     E  G      D          A
Hey, I, ooooh, I'm still alive
    E  G      D          A
Hey I, ooooh, I'm still alive
      E   G  A
Hey...oh...

A  G                   A
   Oh, she walks slowly,
A   G
   across a young man's room
A  G            A     G
   She said I'm ready...for you
A  G                A         G
   I can't remember anything to this very day
A  G              A  G
   'Cept the look,   the look...
    F             G C      F          G C
Oh, you know where,    now I can't see,
         E
I just stare...

CHORUS

(E G A) X4

A  Esus  Asus                    A  Esus  A
             Is something wrong, she said
                    A  Esus  Asus
            Well of course there is
                    A  Esus  Asus
You're still alive, she said
                        B  Badd9  C/G
Oh, and do I deserve to be
                  B  Badd9  B
Is that the question
         B  Badd9  B
And if so...if so.....who answers...who answers...

CHORUS

yea yea yea yea yea yea...

Pearl Jam Alive Tablatura per Chitarra Guitar Tab

Intro:

|---------------------------------------------------------|
|---------------------------------------------------------|
|--0-----2--4--2--2-2-2-------0-----2--4--2-4s5s4--4--2-2-|
|-----0-----------------0--------0------------------------|X2
|---------------------------------------------------------|
|---------------------------------------------------------|

Solo, until the end

-|-------------------------------------------------------|--------------------|
-|-15b17r15-12-------------------------------------------|--------------------|
-|-------------14b16r14-12-------12----12-12-14p12----12-|--------------------|
-|-------------------------14-------14-------------14----|--------------------|
-|-------------------------------------------------------|--------------------|
-|-------------------------------------------------------|--------------------|

-|----------------------------------------------|-----------------------------|
-|-------------------------------------------12-|-----------------------------|
-|-14b16--14b16--14b16r14-12-14-12vvvv-14b16----|-----------------------------|
-|----------------------------------------------|-----------------------------|
-|----------------------------------------------|-----------------------------|
-|----------------------------------------------|-----------------------------|

-|----------12----------12-------------------------------------------|--------|
-|-------12----12-15b17----15p12----12-------------------------------|--------|
-|-14b16-------------------------14----14b16r14p12-14-14-12-14-12vvv-|--------|
-|-------------------------------------------------------------------|--------|
-|-------------------------------------------------------------------|--------|
-|-------------------------------------------------------------------|--------|

-|-------------------------------------|--------17b19v-17b19r17-15-----------|
-|---------------------------------0-0-|-17b19v--------------------17--------|
-|---------------------------------0-0-|------------------------------14/16--|
-|-14-12-------------------------------|-------------------------------------|
-|-------14-13-12-10-12-10-12b14vv-----|-------------------------------------|
-|-------------------------------------|-------------------------------------|

-|-------------15-------------------------------|-----------------------|-----|
-|-15-17----------17--------------------0-------|-----------------------|-----|
-|-------16b18-------16\14p12-14-12vvv--0-2b4vvv|vvvvvvvv-----2b4r2--0--|-----|
-|----------------------------------------------|-----------------------|-----|
-|----------------------------------------------|-----------------------|-----|
-|----------------------------------------------|-----------------------|-----|

-|-------------0-3-0-3-5b7-r5-12-------|-----------------------------------|--|
-|-----0-3-0-3-------------------15-12-|---------------------3-3---5-3---3-|--|
-|-2b4---------------------------------|-2b4vvvvvvvv-2-0-2/4-----4-----4---|--|
-|-------------------------------------|-----------------------------------|--|
-|-------------------------------------|-----------------------------------|--|
-|-------------------------------------|-----------------------------------|--|

-|-----------3-5-5b7-r5p3-5-3----------|-2h3-2---2h3-2---2p0--------------|---|
-|-5vvvvvv-5------------------5-----5/-|---------------------3---3---3-3--|---|
-|-------------------------------------|----------------------------------|---|
-|-------------------------------------|----------------------------------|---|
-|-------------------------------------|----------------------------------|---|
-|-------------------------------------|----------------------------------|---|

-|---0-0-3-0-3-0--------------------------|-----------------------------------|
-|-3-------------12----12-12--------------|-----------------------------------|
-|---------------14b16-------14b16r14-----|-----------------------------------|
-|----------------------------------------|-----------------------------------|
-|----------------------------------------|-----------------------------------|
-|----------------------------------------|-----------------------------------|

-|-------12-12-12-------12---------15-15-------15-15--|-----------------------|
-|-15b17----------15b17------18b20-------18b20--------|-----------------------|
-|----------------------------------------------------|-----------------------|
-|----------------------------------------------------|-----------------------|
-|----------------------------------------------------|-----------------------|
-|----------------------------------------------------|-----------------------|

-|-14-------14-14----14-14-14-12-------12-12-------12-12-12-|-----------------|
-|----17b19-------17-------------15b17-------15b17----------|-----------------|
-|----------------------------------------------------------|-----------------|
-|----------------------------------------------------------|-----------------|
-|----------------------------------------------------------|-----------------|
-|----------------------------------------------------------|-----------------|

-|-------------12-12-------12-12-12---------15-15-------15-15--|--------------|
-|-15p12-15b17-------15b17------------18b20-------18b20--------|--------------|
-|-------------------------------------------------------------|--------------|
-|-------------------------------------------------------------|--------------|
-|-------------------------------------------------------------|--------------|
-|-------------------------------------------------------------|--------------|

-|-12-15p12----12-15-12-15b17-15vv\----------|--------------------------------|
-|----------15-------------------------------|--------------------------------|
-|----------------------------------7/12\-/--|--------------------------------|
-|-------------------------------------------|--------------------------------|
-|-------------------------------------------|--------------------------------|
-|-------------------------------------------|--------------------------------|

-|-15b17--15--12-15-12-12-------12--------------------------|-----------------|
-|------------------------15b17----15p12-------12-----------|-----------------|
-|---------------------------------------14b16----14b16-----|-----------------|
-|----------------------------------------------------------|-----------------|
-|----------------------------------------------------------|-----------------|
-|----------------------------------------------------------|-----------------|

-|----------------------------------------------|-----------------------------|
-|-------------------------------12vvv-12-12-12-|-----------------------------|
-|-14b16r14-12----12-14-12-14-14-12vvv-12-12-12-|-----------------------------|
-|-------------14-------------------------------|-----------------------------|
-|----------------------------------------------|-----------------------------|
-|----------------------------------------------|-----------------------------|

-|-------12-----------12-----------12-----------12-----------12-----------|---|
-|---------15p12--------15p12--------15p12--------15p12--------15p12------|---|
-|-14b16--------14b16--------14b16--------14b16--------14b16--------14b16-|---|
-|------------------------------------------------------------------------|---|
-|------------------------------------------------------------------------|---|
-|------------------------------------------------------------------------|---|

-|-12-----------12-----------12---------------------|-------------------------|
-|---15p12--------15p12---------15p12---------12----|-------------------------|
-|--------14b16--------14b16------------------12----|-------------------------|
-|-----------------------------------------------14-|-------------------------|
-|--------------------------------------------------|-------------------------|
-|------------------------------------15\-----------|-------------------------|

-|----------------------------------------|-----------------------------------|
-|-14-12vvv------------14-12vvv-----------|-----------------------------------|
-|-14-12vvv--14-12-----14-12vvv--14-12----|-----------------------------------|
-|-----------------14------------------14-|-----------------------------------|
-|----------------------------------------|-----------------------------------|
-|----------------------------------------|-----------------------------------|

-|-------------------------12-12-------12-12-------15-|-----------------------|
-|-------12----12-------12-12-12-------12-12----------|-----------------------|
-|-14vvv-12----12-14b16----------14b16-------14b16----|-----------------------|
-|----------14----------------------------------------|-----------------------|
-|----------------------------------------------------|-----------------------|
-|----------------------------------------------------|-----------------------|

-|-------15-------15-------15-------15-------15----|--------------------------|
-|-15----15-15----15-15----15-15----15-15-------15-|--------------------------|
-|-14b16----14b16----14b16----14b16----14b16----16-|--------------------------|
-|-------------------------------------------------|--------------------------|
-|-------------------------------------------------|--------------------------|
-|-------------------------------------------------|--------------------------|
                                   hold bend--|

-|--------------------------------------0---0-0-|-------------------------------|
-|-15-----------------------------------3/5-5-5-|-------------------------------|
-|-16r14-12----12-14-14-14---14-14-14-----------|-------------------------------|
-|----------14----------------------------------|-------------------------------|
-|----------------------------------------------|-------------------------------|
-|----------------------------------------------|-------------------------------|

-|-0------0--0--3--0--0--0--5--0--0--0--3--0--0--0--|-------------------------|
-|-3-/-5--5--5--5--5--5--5--5--5--5--5--5--5--5--5--|-------------------------|
-|--------------------------------------------------|-------------------------|
-|--------------------------------------------------|-------------------------|
-|--------------------------------------------------|-------------------------|
-|--------------------------------------------------|-------------------------|

-|-0------0--0--3--0--0--0--15b17-12-12-------12-------12-12-|----------------|
-|-3-/-5--5--5--5--5--5--5--------------15b17----15b17-------|----------------|
-|-----------------------------------------------------------|----------------|
-|-----------------------------------------------------------|----------------|
-|-----------------------------------------------------------|----------------|
-|-----------------------------------------------------------|----------------|

-|-15b17-12-12-------12-12-------12-12-------12-12--15p12-15-15-|-------------|
-|-------------15b17-------15b17-------15b17--------------------|-------------|
-|--------------------------------------------------------------|-------------|
-|--------------------------------------------------------------|-------------|
-|--------------------------------------------------------------|-------------|
-|--------------------------------------------------------------|-------------|

-|-17b19--17--15-17-15b16--------------------|--------------------------------|
-|-------------------------17-15----15-17p15-|--------------------------------|
-|-------------------------------16----------|--------------------------------|
-|-------------------------------------------|--------------------------------|
-|-------------------------------------------|--------------------------------|
-|-------------------------------------------|--------------------------------|

-|-17b19--17--15-17-15b16-------------------|---------------------------------|
-|-------------------------17-15----15------|---------------------------------|
-|-------------------------------16----16\--|---------------------------------|
-|------------------------------------------|---------------------------------|
-|------------------------------------------|---------------------------------|
-|------------------------------------------|---------------------------------|

-|----------------------12--------------------------------|-------------------|
-|-------------------12----12-15b17vvvv-15b17-15b17r15p12-|-------------------|
-|-14-12----12-14b16--------------------------------------|-------------------|
-|-------14-----------------------------------------------|-------------------|
-|--------------------------------------------------------|-------------------|
-|--------------------------------------------------------|-------------------|

-|-------12-----------12-15p12------12-----------12-----------12--------|-----|
-|---------15p12----------------------15p12--------15p12--------15p12---|-----|
-|-14b16--------14b16---------14b16--------14b16--------14b16--------14-|-----|
-|----------------------------------------------------------------------|-----|
-|----------------------------------------------------------------------|-----|
-|----------------------------------------------------------------------|-----|

-|-----------------------------------------------|----------------------------|
-|-------12-12-12-------12-----------------------|----------------------------|
-|-14b16----------14b16----15-14-12---12vvvv-----|----------------------------|
-|---------------------------------14------------|----------------------------|
-|-----------------------------------------------|----------------------------|
-|-----------------------------------------------|----------------------------|

-|------------------------------------|--------------------------x-x-|--------|
-|-12----12--------14-----15----------|-17------17-----17------------|--------|
-|-14b16-14b16vvvv-16b18--17b19vvvvvv-|-19b21---19b21--19b21vvv------|--------|
-|------------------------------------|------------------------------|--------|
-|------------------------------------|------------------------------|--------|
-|------------------------------------|------------------------------|--------|

-|-12-------14----15-------15-------|-17-------------------------------------|
-|-15b17vvv-17b19-18b20vvv-18b20vvv-|-20b22vvvv-20b22-20b24-20b22r20-17h20---|
-|----------------------------------|----------------------------------------|
-|----------------------------------|----------------------------------------|
-|----------------------------------|----------------------------------------|
-|----------------------------------|----------------------------------------|

-|--------------------------------|--------||---------------------------------|
-|-p17vvvvvv-\--------------------|--------||---------------------------------|
-|--------------------------------|--------||---------------------------------|
-|--------------------------------|--------||---------------------------------|
-|--------------------------------|--------||---------------------------------|
-|--------------------------------|--------||---------------------------------|
Agenzia Musicisti

Articoli correlati

L'autore del post

Foto dell'autore
Alberto Moneti 28 anni; pianista dall'età di 8 anni, organista, percussionista, ha conseguito la licenza in teoria e solfeggio al Conservatorio Cherubini di Firenze. Webmaster, operatore di marketing online e SEO. Twitter @albertomoneti