Punk Rock Song è un brano scritto dal cantante dei Bad Religion Greg Graffin e pubblicato nel loro album del 1996 The Grey Race. Il singolo non entrò neppure nelle classifiche americane, ma riscosse un discreto successo in Europa e specialmente in Finlandia, Germania, Svezia.
La stessa canzone dà il titolo alla compilation edita dalla Epic nel 2002 Punk Rock Songs, un greatest hits mai approvato dai componenti del gruppo ed uscito in seguito al loro ritorno alla Epitaph Records.

Testo e accordi + tablatura per chitarra.

Punk Rock Song Bad Religion Testo Accordi Chitarra Guitar

Intro:
C#m E B G# (2x)

         C#m           E               B               F#
Have you been to the desert, have you walked with the dead?
          C#m                E             B                G#
There's a hundred thousand children being killed for their bread
        A                               E
And the figures don't lie they speak of human disease
       B                       E            B
But we do what we want and we think what we please
         C#m           E                 B             F#
Have you lived the experience, Have you witnessed the plague?
C#m            E                B         G#
People making babies sometimes just to escape
        A                          E
In this land of competition the compassion is gone
       B                       E            B
Yet we ignore the needy and we keep pushing on
E            B
Keep pushing on
C#m      A      E         B
This is just a punk rock song
C#m              A              E               G#
Written for the people who can see something's wrong
     A                   E
Like ants in a colony we do our share
            B
But there's so many other fuckin' insects out there
C#m      A      E    B
This is just a punk rock song

C#m E B G#
C#m E B G#

(continue w/ lyrics)
Have you visited the quagmire, have you swam in the shit?
The party conventions and the real politik
The faces always different, the rhetoric the same
But we swallow it all and we see nothing changed

Nothing has changed

This is just a punk rock song
Written for the people who can see something's wrong
Like workers in a factory, we do our share
But there's so many other fucking robots out there
This is just a punk rock song

C#m         E            B         F#
10 million dollars on a losing campaign
C#m         E            B           F#
20 million starving and writhing in pain
C#m         E        B          F#
Big strong people unwilling to give
C#m       E          B   B
Small in vision and perspective

One in five kids below the poverty line
One population runnin' out of time

Runnin' outta time

This is just a punk rock song
Written for the people who can see something's wrong
Like ants in a colony, we do our share
But there's so many other fucking insects out there
This is just a punk rock song

Chorus 

guitar 1 

e|-------16-16-------16-16-------16------16----16-16------16-16------16----|
B|-14-14-------14-14-------14-14----14--14---14------14-14------14-14--13--|
G|-------------------------------------------------------------------------|
D|-------------------------------------------------------------------------|
A|-------------------------------------------------------------------------|
E|-------------------------------------------------------------------------| 

e|-14/16-16-16-17-17-16-16--16-15-15-15-16-17-16-16-------16-16-----16-16-14-16|
B|---------------------------------------------------14-14-----14-14-----------|
G|-----------------------------------------------------------------------------|
D|-----------------------------------------------------------------------------|
A|-----------------------------------------------------------------------------|
E|-----------------------------------------------------------------------------| 

Solo 

guitar 1
e|--------------------------------------------------------------------------|
B|-14-14-----14-14-----14-----14--14-16-17-16-14--13-14---------------------|
G|------12-13-----12-13--12-13-------------------------/13--------13--------|
D|--------------------------------------------------------14-16-----14-16---|
A|-------------------------------------------------------------16--------15-|
E|--------------------------------------------------------------------------| 

e|---------------------------------|
B|-----------9-12-12B-12-9---------|
G|------9-11--------------11-9-11B-|
D|-9-11----------------------------|
A|---------------------------------|
E|---------------------------------| 

[Bad Religion]

Articoli correlati

  • American JesusAmerican Jesus American Jesus è la risposta dei Bad Religion a quanto affermato dall'allora presidente americano George H.W. Bush, dicendo che l'America avrebbe vinto la Guerra del Golfo perchè […]
  • SorrowSorrow Il testo di Sorrow è tratto da uno dei libri della Bibbia ebrea, in cui con un'allegoria si raffigurano le sofferenze umane. Dal testo si è ispirato Brett Gurewitz, chitarrista e […]
  • Un Disco Italiano All’Anno: 2005Un Disco Italiano All’Anno: 2005 Afterhours - Ballate Per Piccole Iene Album di successo che conferma, qualora ce ne fosse ancora bisogno, quanto gli Afterhours siano una creatura musicale tutta da […]
  • Un Disco All’Anno: 2003Un Disco All’Anno: 2003 The White Stripes - Elephant Ridurre questo album alla sola hit mondiale "Seven Nation Army" è a dir poco riduttivo. Qui di carne al fuoco ce n'è in abbondanza, il duo […]
  • Chop Suey!Chop Suey! Chop Suey! è il primo singolo estratto da Toxicity, il secondo album dei System Of A Down pubblicato nel 2001. Lo stesso album si trovava al primo posto delle classifiche […]

L'autore del post

Foto dell'autore
Alberto Moneti
31 anni; pianista dall'età di 8 anni, organista, percussionista, chitarrista, ha conseguito la licenza in teoria musicale e solfeggio al Conservatorio Cherubini di Firenze. Fondatore di Accordiespartiti.it, operatore di marketing online e SEO.
Bad Religion