Traspositore
0
Semplifica
Testo
Auto-scroll
Traspositore
0
Semplifica accordi
Dimensioni Testo
0
Auto-scroll
Video Stampa Segnala

Iron Man: Chords

100 Esercizi di Chitarra, scopri il nuovo libro Bestseller!

Riff 1 (anche sotto la strofa)

e|-----------------------------------|
B|-----------------------------------|
G|-----------------------------------|
D|4/7-7/9-12\10-12\12-12\7-7/9-9-----|
A|2/5-5/7-10\9--10\9--10\5-5/7-7-----|
E|-------------------------------X\3-|
(x2)


Has he lost his mind?

Can he see or is he blind?

Is he alive or dead?

Has he thoughts within his head

riff...

We'll just pass him there

Why should we even care?

He was turned to steel

In the great magnetic field

When he travelled time

For the future of mankind

e|-------------------------------------|
B|-------------------------------------|
G|-------------------------------------|
D|-------------------------------------|
A|-----5-------------------------------|
E|-7-7---7-6-5-5-5-0h4-5-5-6-7-7-------|
(x3)

riff...

Has he lost his mind?

Can he see or is he blind?

Is he alive or dead?

Has he thoughts within his head

e|------------------------------------------------|
B|------------------------------------------------|
G|----------------------2-3-4---------------2-3-4-|
D|9--7--4-4-----2-2-3-4-------4-4-----22-3-4------|
A|7--5--2-2-2-5---------------2-2-2-5-------------|
E|------------------------------------------------|
(x2)

Nobody wants him

He just stares at the world

Planning his vengeance

That he will soon unfold

Riff...

Now the time is here

For Iron Man to spread fear

Vengeance from the grave

Kills the people he once saved

e|------------------------------------------------|
B|------------------------------------------------|
G|----------------------2-3-4---------------2-3-4-|
D|9--7--4-4-----2-2-3-4-------4-4-----22-3-4------|
A|7--5--2-2-2-5---------------2-2-2-5-------------|
E|------------------------------------------------|
(x2)

Nobody wants him

They just turn their heads

Nobody helps him

Now he has his revenge


Heavy boots of lead

Fills his victims full of dread

Running as fast as they can

Iron Man lives again!
100 Esercizi di Chitarra, scopri il nuovo libro Bestseller!

Credits

Autori: BUTLER TERENCE MICHAEL, IOMMI F FRANK, OSBOURNE JOHN, WARD WILLIAM T.
Copyright: © ESSEX ITALIANA EDIZIONI MUSICALI S.R.L.
 

Iron Man: Video

Il testo della canzone è di argomento fantasacientifico, ma sebbene una sua recente cover di Ozzy Osborne sia stata usata come colonna sonora dell'omonimo film, Iron Man non parla del supereroe dei fumetti. È una delle più celebri dei Black Sabbath, ed ha anche ricevuto diversi Award per essere considerata la migliore canzone metal di tutti i tempi. Ne sono state eseguite diverse interessanti cover in occasione dell'inserimento del gruppo nella Rock & Roll Hall Of Fame.

 

Articoli correlati

 Black Sabbath: Vedi tutte le canzoni
N.I.B.
N.I.B. è un brano composto e inciso dai Black Sabbath, contenuto nell'album eponimo pubblicato nel 1970. Disco d'esordi...
Paranoid
Paranoid è una canzone del 1970, incisa dai Black Sabbath per il loro omonimo disco. E' ad oggi uno dei più celebri pe...
God Is Dead?
God Is Dead? è un brano composto e inciso dai Black Sabbath, contenuto nell'album 13 pubblicato nel 2013. Diciannovesim...
The Wizard
The Wizard è un brano composto e inciso dai Black Sabbath, contenuto nell'album eponimo pubblicato nel 1970. Disco d'es...
End of the Beginning
End of the Beginning è un brano composto e inciso dai Black Sabbath, contenuto nell'album 13 pubblicato nel 2013. Dicia...

L'autore del post

Foto dell'autore
Alberto Moneti
36 anni, polistrumentista: pianoforte, chitarra, batteria, clarinetto. Ha conseguito la licenza in teoria musicale e solfeggio presso il Conservatorio Cherubini di Firenze. Dal 1997 è organista presso la Basilica di Santa Maria del Sasso, a Bibbiena (AR).