It’s My Life non rappresenta solo uno dei più grandi successi dei Bon Jovi: venne rilasciata nel maggio 2000 e divenne il simbolo della rinascita del gruppo. Erano infatti 5 anni che i Bon Jovi si erano sciolti per seguire ognuno la propria carriera solista, quando con questo brano irruppero nelle classifiche di mezzo mondo, proponendosi a chi li aveva sempre seguiti ma soprattutto ad un pubblico più giovane che, parimenti, cominciò ad apprezzarli.
Con l’album Crush (del quale It’s My Life è il primo singolo), i Bon Jovi si lasciavano definitivamente alle spalle gli anni ’80 che li avevano resi famosi.

It’s my life: tablatura per chitarra.

Bon Jovi It’s My Life Testo Accordi Tablatura per Chitarra Lyrics Guitar Chords Tab

Intro: w/talkbox

                   piano arranged for guitar
|-----------------|-------------------------|------------------|
|-----------------|--------8-9--8-----------|------------------|
|--5--5-----------|---7-8-------------------|--5--5------------|
|--5--5-----------|-------------------------|--5--5------------|
|--3--3-----------|-------------------------|--3--3------------|
|--3--3-----------|-------------------------|--3--3------------|

Verse

|-----------|--------------------|
|-----------|--------------------|
|--5--------|--5--5--x--x--5-----|
|--5--------|--5--5--x--x--5-----|
|--3--------|--3--3--x--x--3-----|
|--3--------|--3--3--------3-----|

Pre-Chorus

|------------------------|
|------------------------|
|--5---------------------|
|--5--(let chord ring)---|
|--3---------------------|
|--3---------------------|

Chorus
	 Cm	   Ab	         Eb
It's my life, it's now or never
	        Bb	    Cm
I ain't gonna live forever
		 Ab	       Eb   Gm   Bb
I just want to live when I'm alive
	 Cm			   Ab		Eb
It's my life; my heart is like an open highway
		          Bb         Cm
Like franky said I did it my way,
	       Ab	     Gm
I just wanna live when I'm alive
Gm   Bb   Cm
It's my life

Solo

|----------------|----------------|----------------|----------------|
|3-^-3-^-3-^-3-^-|3-^-3-^-3-^-3-^-|3-^-3-^-3-^-3-^-|3-^-3-^-3-^-3---|
|----------------|----------------|----------------|--------------5-|
|----------------|----------------|----------------|----------------|
|----------------|----------------|----------------|----------------|
|----------------|----------------|----------------|----------------|

|----------------|----------------|----------------|----------------|
|------4-7-7^8-Gradual-Release----|7-5-7-----------|------------4---|
|--3-5-----------|----------------|------3-5-------|----------3---3-|
|----------------|----------------|----------------|--------5-------|
|----------------|----------------|----------------|----------------|
|----------------|----------------|----------------|----------------|

Articoli correlati

  • Bed Of RosesBed Of Roses Bed Of Roses è una canzone del 1993, incisa dai Bon Jovi con l'album Keep The Faith. Il brano, che è una ballata, rappresenta una sorta di rottura col glam rock che aveva […]
  • AlwaysAlways Nel 1994 Always era la traccia inedita che accompagnava Cross Road, il greatest hits dei Bon Jovi, che risultò essere un successone a livello mondiale. Il singolo, che raggiunse […]
  • Livin’ On A PrayerLivin’ On A Prayer Considerata la canzone più caratteristica della band, Livin' On A Prayer è stata scritta ed incisa nel 1986 dai Bon Jovi con il loro album Slippery When Wet. Strano a dirsi, Jon […]
  • Left Outside AloneLeft Outside Alone Left Outside Alone è un brano dell'album Anastacia, pubblicato dalla cantante nel 2003, da cui è stato estratto come singolo promotore. Lo stesso singolo ha riscosso un enorme […]
  • HallelujahHallelujah Hallelujah è un brano scritto da Leonard Cohen e pubblicato nel suo album del 1984 Various Positions, poi riproposto nel 1994 con l'album registrato dal vivo Cohen Live e nel […]

L'autore del post

Foto dell'autore
Alberto Moneti
31 anni; pianista dall'età di 8 anni, organista, percussionista, chitarrista, ha conseguito la licenza in teoria musicale e solfeggio al Conservatorio Cherubini di Firenze. Fondatore di Accordiespartiti.it, operatore di marketing online e SEO.
Bon Jovi