Inciso da Chriss Isaak nel 1989 con l’album Heart Shaped World, Wicked Game non fu un singolo di successo fino a quando non venne utilizzato, l’anno successivo, come colonna sonora del film di David Lynch “Cuore Selvaggio”. Solo allora iniziò ad essere passato continuamente in radio fino a salire al sesto posto della Billboard Hot 100 americana. La cover degli HIM invece risale al 1998, quando fu pubblicata per la prima volta nel loro demo This Is Only The Beginning, per poi ricomparire nel loro primo EP, nel loro primo album, nel secondo ed infine nella compilation And Love Said No – The Greatest Hits 1997-2004.

HIM Wicked Game Tablatura Tab

Main Riff

[Guitar 1] - palm mute
|--------------------------------------------------------------|
|--------------------------------------------------------------|
|----4-4-4-4-4-4-4--2-2-2-2-2-2-2--1-1-1-1-1-1-1-1-1-1-1-1-1-1-|
|----4-4-4-4-4-4-4--2-2-2-2-2-2-2--2-2-2-2-2-2-2-2-2-2-2-2-2-2-|
|----2-2-2-2-2-2-2--0-0-0-0-0-0-0--2-2-2-2-2-2-2-2-2-2-2-2-2-2-|
|--------------------------------------------------------------|

[Guitar 2]
|--------------------------------------------------------------|
|--------------------------------------------------------------|
|-------------------------------------------------2---1--------|
|---------------------------------------------2h4---2----------|
|--------------------------------------------------------------|
|--------------------------------------------------------------|

Riff 2

|--------------------------------------------------------------|
|---7--------------------------------7-------------------------|
|-7----9-7-6-4---2-1---1-2-4-~-----7--9-7-6-4---2-1---1-2-4-~--| X3
|--------------------------------------------------------------|
|--------------------------------------------------------------|
|--------------------------------------------------------------|

HIM Wicked Game Testo Accordi Chitarra Lyrics Guitar Chords

Bm                  A                       E
World was on fire, no one could save me but you
     Bm                        A                  E
It's strange what desire will make foolish people do
I'd never dreamed that I'd need somebody like you
And I'd never dreamed that I'd need somebody like you

   Bm  A             E
No, I wanna fall in love
(this world is only gonna break your heart)
No, I wanna fall in love
(this world is only gonna break your heart)
..with you

(this world is only gonna break your heart)

What a wicked game to play
To make me feel this way
What a wicked thing to do
To let me dream of you
What a wicked thing to say
You never felt this way
What a wicked thing you do
To make me dream of you

No, I wanna fall in love
(this world is only gonna break your heart)
No, I wanna fall in love
(this world is only gonna break your heart)
..with you

World was on fire, no one could save me but you
It's strange what desire will make foolish people do
No, and I never dreamed that I'd love somebody like you
I'll never dream that I lose somebody like you, no

No, I wanna fall in love
(This world is only gonna break your heart)
(No, I wanna fall in love
(This world is only gonna break your heart)
..with you

(This world is only gonna break your heart)
No, I...
(This world is only gonna break your heart)
(This world is only gonna break your heart)

Nobody loves no one

Articoli correlati

  • Wings Of A ButterflyWings Of A Butterfly Wings Of A Butterfly è una canzone del 2005, incisa su Dark Light, album dei finlandesi Him del quale è risultato essere il miglior singolo. Il testo è un riferimento all'antico […]
  • My ImmortalMy Immortal My Immortal viene rilasciato dagli Evanescence in una prima versione demo nel 1997. Il brano fu scritto dall'allora fondatore del gruppo Ben Moody, oggi impegnato in una carriera […]
  • Mentre DormiMentre Dormi Inciso nel 2010 da Max Gazzè con l'album Quindi?, Mentre Dormi è un brano scritto assieme a Gimmi Santucci. Ha fatto da colonna sonora per il film diretto da Rocco Papaleo dello […]
  • Everyday I Love You Less And LessEveryday I Love You Less And Less Everyday I Love You Less And Less è la prima traccia del primo album dei Kaiser Chiefs, dal titolo Employment (2005). E' stato lanciato come terzo singolo estratto dallo stesso […]
  • Macho ManMacho Man Macho Man è il secondo singolo inciso nel 1978 dal gruppo americano dei Village People, primo estratto dal loro secondo album che da esso prendeva il titolo, appena un anno dopo […]

L'autore del post

Foto dell'autore
Alberto Moneti
31 anni; pianista dall'età di 8 anni, organista, percussionista, chitarrista, ha conseguito la licenza in teoria musicale e solfeggio al Conservatorio Cherubini di Firenze. Fondatore di Accordiespartiti.it, operatore di marketing online e SEO.
HIM