Forever è una tipica power ballad, scritta nel 1989 da Paul Stanley assieme al cantautore pop Michael Bolton (col quale aveva precedentemente lavorato l’altro chitarrista Bruce Kulick).
In termini di classifica rappresenta uno dei maggiori successi dei Kiss, estratto singolo dall’album Hot In The Shade ed il cui videoclip ha ottenuto un massiccio airplay su MTV.

Testo con accordi e tablatura per chitarra.

Forever Kiss Testo e Accordi per Chitarra Tablatura guitar

D       C9                 G           D9
I got to tell you what I'm feeling inside.
      Em        D              C9
I could lie to myself, but its true.
D           C9               G            D9
There's no denyin' when I look in your eyes
     Em          D              C9
Girl, I'm out of my head over you.
Am7        G/B                 C            D
And I lived so long be  lieving all love is blind
 C                G/B           C            D
But everything about you is telling me this time
    G  D    Em            C                     Am             D
Its fore_ver  This time I know and there's no doubt in my mind.
 G   D  G             Am7
Fore_ver.  Until my life is through,
G/B       C                D   C
Girl I'll be loving you fore_ver
D       C9          G            D9
I hear the echo of a promise I made
   C9                  D                  C9
When you're strong you can stand on your own.
D               C9            G                 D9
But those words grow distant as I look at your face
 Em               D       C9
No, I don't wanna go it alone
Am7  G/B                      C                D
An' I never thought I'd lay my heart on the line.
Am7           G/B           C                  D
But everything about you is telling me this time
 G  D    Em            C                     Am            D
Its fore_ver  This time I know and there's no doubt in my mind.
 G   D  G             Am7
Fore_ver.  Until my life is through,
G/B     C                D   C
Girl I'll be loving you fore_ver
D9 C9 G D Em D C9
D     C9                G                D9
I see my future when I look in your eyes
D      C9                     G           D9
It took your love to make my heart come alive
Am7       G/B                 C            D
And I lived so long be  lieving all love is blind
  C         G/B           C                  D
But everything about you is tellin' me this time
 G  D    Em      C                             Am             D
Its fore_ver  This time I know and there's no doubt in my mind.
G   D  G             Am7
Fore_ver.  Until my life is through,
G/B                        D   C
Girl I'll be loving you fore_ver 

 -------------------------------------SOLO-----------------------------------
 ----------------------------------------------------------------------------

e|--10-10-10--10-10-10-------------------------------------------------------|
B|----------------------13-11------------------------------------------------|
G|----------------------------12-121212121212--------------------------------|
D|--------------------------------------------12/14--14-14-14-14-1412--------|
A|---------------------------------------------------------------------------|
E|---------------------------------------------------------------------------|

e|---------------------------------------------------------------------------|
B|---------------------------------------------------------------------------|
G|---------------------------------------------------------------------------|
D|-12-12-12-12-12-12\10-10-10-10--10-10-10-10-10---12--12-12-12-12-10--------|
A|---------------------------------------------------------------------------|
E|---------------------------------------------------------------------------|

e|-------------------------12-121212121212-10h12---12-12-12-10-10-12-12-12-10|
B|---------------------------------------------------------------------------|
G|-------------12--12--12----------------------------------------------------|
D|-10-10-10-10---------------------------------------------------------------|
A|---------------------------------------------------------------------------|
E|---------------------------------------------------------------------------|

e|-8--8-8-8---8-8-8-8-8-8-----|
B|----------------------------|
G|----------------------------|
D|----------------------------|
A|----------------------------|
E|----------------------------|

[Kiss]

Articoli correlati

  • I Was Made For Lovin’ YouI Was Made For Lovin’ You I Was Made For Lovin' You è un famoso brano dei Kiss, uscito nel 1979 come primo singolo estratto dall'album Dynasty. Grazie alla combinazione di hard rock e disco è stato un […]
  • Detroit Rock CityDetroit Rock City Detroit Rock City è un brano che i Kiss, nel 1976, dedicarono ad un loro fan tragicamente morto in un incidente stradale mentre stava andando ad un loro concerto. Fu rilasciato […]
  • Shiny Happy PeopleShiny Happy People Shiny Happy People è una canzone dei Rem, pubblicata nel 1991 col fortunato album Out Of Time, e da lì estratta come singolo. E' stata utilizzata nei film Fahrenheit 9/11 (2004) […]
  • VaffanculoVaffanculo E' uno dei brani di maggior successo di Marco Masini, rilasciato come primo singolo da T'Innamorerai, inciso nel 1993; Vaffaffanculo è una canzone autobiografica, il cui singolo […]
  • Anche Se Non Ci SeiAnche Se Non Ci Sei Anche Se Non Ci Sei è un brano scritto e interpretato da Sal Da Vinci, nome d'arte di Salvatore Michael Sorrentino. Canzone contenuta nell'album È così che gira il mondo […]

L'autore del post

Foto dell'autore
Alberto Moneti
31 anni; pianista dall'età di 8 anni, organista, percussionista, chitarrista, ha conseguito la licenza in teoria musicale e solfeggio al Conservatorio Cherubini di Firenze. Fondatore di Accordiespartiti.it, operatore di marketing online e SEO.
Kiss