Sweet Dreams è stata composta nel 1983 dagli Eurhytmics (Annie Lennox e David A. Stewart) col titolo originale di Sweet Dreams (Are Made Of These). In chiave pop, la canzone ebbe un successo commerciale eccellente, scalando le classifiche di USA e Regno Unito al punto che anche Rolling Stone l’ha inserita tra le 500 canzoni più belle di sempre. La cover di Marilyn Manson risale al 1996 con l’album Smells Like Children e, come intuibile, è di tutt’altro genere.

Marilyn Manson Sweet Dreams Testo Accordi Tablatura Chitarra Lyrics Guitar Chords Tab

e | ---------------------------------- |
B | ---------------------------------- |
G | ---------------------------------- |
D | -----5---6---5-------------------- |
A | -3-3---3---3--------6/8------5/6-- |
E | ---------------4-4--------3-3----- |  (2x) 

Cm           Ab           G
Sweet dreams are made of this
Cm           Ab   G
Who am I to disagree?
Cm                       Ab     G
Travel the world and the seven seas
Cm           Ab          G
Everybody's looking for something

Cm                   Ab     G
Some of them want to use you
Cm                       Ab       G
Some of them want to get used by you
Cm                      Ab    G
Some of them want to abuse you
Cm                   Ab     G
Some of them want to be abused

e | ---------------------------------- |
B | ---------------------------------- |
G | ---------------------------------- |
D | -----5---6---5-------------------- |
A | -3-3---3---3--------6/8------5/6-- |
E | ---------------4-4--------3-3---------- |  (4x) 

Cm               Ab       G
Sweet dreams are made of this
Cm          Ab    G
Who am I to disagree?
Cm                       Ab     G
Travel the world and the seven seas
Cm           Ab           G
Everybody's looking for something

Cm                   Ab     G
Some of them want to use you
Cm                       Ab       G
Some of them want to get used by you
Cm                      Ab    G
Some of them want to abuse you
Cm                   Ab     G
Some of them want to be abused

e | ---------------------------------- |
B | ---------------------------------- |
G | ---------------------------------- |
D | -----5---6---5-------------------- |
A | -3-3---3---3--------6/8------5/6-- |
E | -------------4-4--------3-3---------- |

I wanna use you
and abuse you
I wanna know whats inside you
Movin on...

   MOVIN ON!!! 

Solo:
e | --6---8--11--6--8--6-------------------
B | ----------------------7----------------
G | ---------------------------------3-----
D | ---------------------------------------
A | ---------------------------------------
E | ---------------------------------------

e | ------------------------------------------
B | ------------------------------3--4--------
G | --------5--------------5---5--------------
D | ---3--5----------3--3---------------------
A | -----------3--5---------------------------
E | ------------------------------------------

e | -----------------6---8--6---11--13---14--------
B | ----3---6----6--------------------------13-----
G | -----------------------------------------------
D | -----------------------------------------------
A | -----------------------------------------------
E | -----------------------------------------------

Sweet dreams are made of these

Who am i to disagree? 

Travel the world and the seven seas

everybody's looking for something
Cm                   Ab     G
Some of them want to use you
Cm                       Ab       G
Some of them want to get used by you
Cm                      Ab    G
Some of them want to abuse you
Cm                   Ab     G
Some of them want to be abused

I wanna use you

and abuse you

I wanna know whats inside you

I wanna use you

and abuse you 

I wanna know whats inside you

Articoli correlati

  • Sweet DreamsSweet Dreams Sweet Dreams (Are Made Of This) è un singolo che nel 1983 proiettò gli Eurythmics verso il successo internazionale. Dette il nome all'album inciso dal duo britannico e fu […]
  • Wish You Were HereWish You Were Here Wish You Were Here è la celebre title track dell'album inciso dai Pink Floyd nel 1975: fu composta da Roger Waters e David Gilmour (il primo più per il testo ed il secondo più […]
  • In BloomIn Bloom In Bloom è un pezzo scritto da Kurt Cobain e indirizzato a tutti coloro che al tempo, in quanto estranei alla musica underground, non la comprendevano e la criticavano. Fu […]
  • I Don’t Want To Miss A ThingI Don’t Want To Miss A Thing Aerosmith I Don't Want To Miss A Thing Guitar Chords RE LA/DO# SIm I could stay awake just to hear you breathing, SOL […]
  • Un Disco Italiano all’Anno: 2007Un Disco Italiano all’Anno: 2007 A Toys Orchestra - Technicolor Dreams E' il 2007 quando, finalmente, un'indie-pop di pregiata fattura si affaccia finalmente nel nostro bel paese. Gli A Toys Orchestra ci […]

L'autore del post

Foto dell'autore
Alberto Moneti
31 anni; pianista dall'età di 8 anni, organista, percussionista, chitarrista, ha conseguito la licenza in teoria musicale e solfeggio al Conservatorio Cherubini di Firenze. Fondatore di Accordiespartiti.it, operatore di marketing online e SEO.
Marilyn Manson