Enter Sandman è la traccia di apertura del Black Album, pubblicato dai Metallica nel 1991. Nato da un’idea del chitarrista Kirk Hammett e composto poi assieme a Lars Ulrich e James Hetfield, è stato acclamato sia dalla critica che dal pubblico ed ha venduto più di 500 mila copie solo negli Usa, contribuendo all’enorme successo dell’album.
Nel 1992 fu nominato ai Grammy Awards tra le migliori canzoni hard rock e vinse un Mtv Music Video Award come miglior video hard rock.
E’ un vero e proprio classico della band californiana, immancabile ai loro concerti e ripreso da molti altri artisti in tutto il mondo.

Testo, accordi e tablatura per chitarra.

Enter Sandman Metallica Lyrics Tablatura per Chitarra Guitar

Intro:

-------------------------------------------------
-------------------------------------------------
-------------------------------------------------  repeat 4 times
---------5----------------------5----------------
------7--------------7-------7--------------7----
---0--------6--5----------0--------6--5----------

[distortion]

E5 / / F5  E5 / / F5  E5 / / F5             repeat several times

E5 / / F5  E5 / / A#5 E5 / / F5             repeat several times

E5 / / A#5 A5         E5 / / A#5 A5

E5 / / A#5 A5         G5 E! F#5 E! F#5 G5 F#5

                    F5
say your prayers, little one
                 F5
don't forget, my son,
                G5
to include everyone

F#5 G5 F#5 

E5                    F5
   tuck you in, warm within
                   F5
keep you free from sin
                   G5
till the sandman he comes

F#5 G5 F#5 

sleep with one eye open
gripping your pillow tight

F#5  B5  F#5  B5
Ex   it: light
F#5  B5  E5
Ent  er: night

F#5 B5   E5
take  my hand
      G5     F#5     G5 F#5    E5
we're off to never-never   land

E5
                     F5
something's wrong, shut the light
                 F5
heavy thoughts tonight
                G5
and they aren't of snow white

F#5 G5 F#5 

E5                    F5
   dreams of war, dreams of liars
                   F5
dreams of dragon's fire
                G5
and of things that will bite

sleep with one eye open
gripping your pillow tight

F#5  B5  F#5  B5
Ex   it: light

F#5  B5  E5
Ent  er: night

F#5 B5   E5
take  my hand
      G5     F#5     G5 F#5    E5
we're off to never-never   land

E

hush little baby, don't say a word
and never mind that noise you heard
it's just the beasts under your bed
F#5
    in your closet, in your head

F#5  B5  F#5  B5
Ex   it: light
F#5  B5  E5
Ent  er: night
F#5 B5   E5
grain of sand

F#5  B5  F#5  B5
Ex   it: light
F#5  B5  E5
Ent  er: night
F#5 B5   E5
take  my hand
      G5     F#5     G5 F#5    E5
we're off to never-never   land

Outro:

   E5                          F5 E5                           F5 E5

	PM              PM--|    P    PM---------------------|    P

1|---------------------------------------------------------------------------
2|---------------------------------------------------------------------------
3|---------------------------------------------------------------------------
4|---------------------------------------------------------------------------
5|--2-------7-------------------3\2-----------7------------------3\2---------
6|--0---0-------6---5---0---0---1\0---0---0------6---5---0---0---1\0---------

				      |-------------3x-------------|

			      F5 E5

    PM--|          PM------|    P      PM--------------------------|
1|---------------------------------------------------------------------------
2|---------------------------------------------------------------------------
3|---------------------------------------------------------------------------
4|---------------------------------------------------------------------------
5|----------7------------------3\2-------------7-----------------------------
6|--0---0------6---0---0---0---1\0-----0---0-------0---0---0---0---0---------

    |------------4x--------------|     |------------4x-------------|

    PM------------------------------|

1|---------------------------------------------------------------------------
2|---------------------------------------------------------------------------
3|---------------------------------------------------------------------------
4|---------------------------------------------------------------------------
5|---------------------------------------------------------------------------
6|--0---0---0---0---0---0---0---0---0----------------------------------------

    |--- Repeat while fading out ---|

[Metallica]

Articoli correlati

  • The UnforgivenThe Unforgiven The Unforgiven è il terzo singolo del Black Album (1991) dei Metallica. Nella stesura del pezzo, i Metallica hanno rovesciato lo schema della ballad, adottando una strofa potente […]
  • Nothing Else MattersNothing Else Matters Metallica Nothing Else Matters Guitar Chords Accordi Testo Em D C So close no matter how far Em D C Couldn't be much […]
  • Violet HillViolet Hill Violet Hill è un brano rock a tempo di marcia, composto ed inciso dai Coldplay nel 2008 e poi rilasciato come primo singolo estratto dall'album Viva La Vida Or Death And All His […]
  • Virtual InsanityVirtual Insanity Virtual Insanity è stato inciso dai Jamiroquai nel 1996 per l'album Travelling Without Moving ed è divenuto una hit internazionale, contribuendo a far sì che lo stesso album […]
  • If I Ain’t Got YouIf I Ain’t Got You If I Ain't Got You è una canzone scritta, incisa e prodotta da Alicia Keys nel 2003 per il suo secondo album The Diary Of Alicia Keys, pubblicata poi come secondo singolo […]

L'autore del post

Foto dell'autore
Alberto Moneti
31 anni; pianista dall'età di 8 anni, organista, percussionista, chitarrista, ha conseguito la licenza in teoria musicale e solfeggio al Conservatorio Cherubini di Firenze. Fondatore di Accordiespartiti.it, operatore di marketing online e SEO.
Metallica