Traspositore
0
Semplifica
Testo
Auto-scroll
Traspositore
0
Semplifica accordi
Dimensioni Testo
0
Auto-scroll
Video Stampa Segnala

Wishmaster: Chords

Principiante o Intermedio? Scopri i nostri Corsi di Chitarra per tutti i livelli

e|----------------------------------------|
B|----------------------------------------|
G|-----------8--8----------------8----8---|
D|-6--3------8--8------6--3------8----8-8-|
A|-6--3------6--6------6--3------6----6-8-|
E|-4--1----------------4--1-------------6-|


e|---------------------------------------------------------------------|
B|---------------------------------------------------------------------|
G|---------------------------------------8---------------------8---8---|
D|-3-----3-----3-----6-3-----3-----3-----8-3-----3-----3-----6-8---8-8-|
A|-3-----3-----3-----6-3-----3-----3-----6-3-----3-----3-----6-6---6-8-|
E|-1-1-1-1-1-1-1-1-1-4-1-1-1-1-1-1-1-1-1---1-1-1-1-1-1-1-1-1-4-------6-|


Verse:
e:----------------------------$----------------$----------|
B:--------------------------------------------------------|
G:----------------------------8-----8-8--------8--------8-|
D:-3---3-3-3--3-3-3--3-3-3--6-8--3--8-8--3---6-8--3---6-8-|
A:-3---3-3-3--3-3-3--3-3-3--6-6--3--6-6--3---6-6--3---6-6-|
E:-1---1-1-1--1-1-1--1-1-1--4----1*------1*--4----1*--4---|

e:-------$----------------$------------------------|
B:-------------------------------------------------|
G:-------8-----8-8--------8------8-----------------|
D:-3---6-8--3--8-8--3---6-8--3---8-8----6-6-6-8--4-|
A:-3---6-6--3--6-6--3---6-6--3---6-8----6-6-6-8--4-|
E:-1*--4----1*------1*--4----1*----6----4-4-4-6--2-|

Master!

Apprentice!

Heartborne! 7th seeker

Warrior!

Disciple!

In me the Wishmaster

Master!

Apprentice!

Heartborne! 7th seeker

Warrior!

Disciple!

In me the Wishmaster

Elbereth

Lorien

A dreamy-eyed child staring into night

On a journey to storyteller`s mind

Whispers a wish speaks with the stars the words are silent in Him

Distant sigh from a lonely heart

"I`ll be with you soon, my Shalafi"

Grey Havens my destiny

Master!

Apprentice!

Heartborne! 7th seeker

Warrior!

Disciple!

In me the Wishmaster

Silvera

Starbreeze

Sla-Mori the one known only by Him

To august realms, the sorcery within

If you hear the call of arcane lore,

Your world shall rest on Earth no more

A maiden elf calling with her cunning song

"Meet me at the Inn of Last Home"

Heartborne will find the way!

Master!

Apprentice!

Heartborne! 7th seeker

Warrior!

Disciple!

In me the Wishmaster

Master!

Apprentice!

Heartborne! 7th seeker

Warrior!

Disciple!

In me the Wishmaster

Wishmaster

Crusade for Your will

A child, dreamfinder

The Apprentice becoming...

Master!

Apprentice!

Heartborne! 7th seeker

Warrior!

Disciple!

In me the Wishmaster

Master!

Apprentice!

Heartborne! 7th seeker

Warrior!

Disciple!

In me the Wishmaster

Master!

Apprentice!

Heartborne! 7th seeker

Warrior!

Disciple!

In me the Wishmaster