Know Your Enemy è il primo singolo estratto dall’ottavo album studio dei Green Day, 21st Century Breakdown (2009). E’ stato composto come incitamento contro ogni forma di apatia, ed ha ricevuto molte recensioni in cui viene riconosciuto un ritorno alle origini del sound del gruppo, quasi come se Know Your Enemy fosse un outtake dal loro album del 1993 Dookie senza però fare a meno dei contenuti politici degli album più recenti.

Testo con accordi e tablatura per chitarra.

Know Your Enemy Testo Accordi Tablatura per Chitarra Lyrics

CHORUS
B           E      B
Do you know the enemy?
B             E       B
  Do you know your enemy?
      B          E      B       F#
Well, gotta know the enemy, Wah Ay                 x3

VERSE
B           E      B
Violence is an energy
B          E      B
_  Against the enemy
     B           E      B       F#
Well violence is an energy, Wah Ay
B           E     B
Bringing on the fury
B         E       B
 _ The choir infantry
  B            E         B  F#
Revolt against the honor to obey, (Oh weh, oh weh)
B         E       B
Overthrow the effigy
B          E     B
_ The vast majority
     B            E           B     F#
Well burning down the foreman of control (Oh weh, oh weh)
B          E      B
Silence is the enemy
B          E         B
 _ Against your urgency
   B        E          B       F#
So rally up the demons of your soul, (Oh weh, oh weh)

CHORUS  x 2

BRIDGE
      E             B
The insurgency will rise
         E                B
When the bloods been sacrificed
         E              B
Don't be blinded by the lies
        F#                  B         F#
In your eyes
        F#                  B         F#
                                      Say!

SOLO (2 lots of Verse, then Bridge)

e|-------------------------------------11--------|
B|-12-12-12----12-12----------12----12----12-----|
G|----------11-------11-11-11----11----------11--|
D|-----------------------------------------------|
A|-----------------------------------------------|
E|-----------------------------------------------|

e|-------------------------------------------------|\
B|-12-12-12----12-12-12----14-14----14-14----14----| \
G|----------11----------11-------11-------11----11-|  \ x2
D|-------------------------------------------------|  /
A|-------------------------------------------------| /
E|-------------------------------------------------|/

e|-----7-------7-----------7------|\
B|-5-5---5-5-5---------7-----7----| \
G|---------------4-4-4---4-----4--|  \x3
D|--------------------------------|  /
A|--------------------------------| /
E|--------------------------------|/

F#          B      F#  F#       B      F#
Violence is an energy (Oh Weh,  Oh Weh)
        F#      B     F#  F#       B      F#
Oh from here to eternity (Oh Weh,  Oh Weh)
F#          B      F#  F#       B      F#
Violence is an energy (Oh Weh,  Oh Weh)
F#         B      F#
Silence is the enemy
   F#
So gimme gimme revolution

B                  E         B
B                  E         B
B                  E         B
B                  E         B

CHORUS x 3

B         E       B
Overthrow the effigy
B          E     B
_ The vast majority
     B            E           B     F#
Well burning down the foreman of control (Oh weh, oh weh)
B          E      B
Silence is the enemy
B          E         B
 _ Against your urgency
   B        E          B       F#
So rally up the demons of your soul, (Oh weh, oh weh)    

B
END
e|-------------------------------------11--------|
B|-12-12-12----12-12----------12----12----12-----|
G|----------11-------11-11-11----11----------11--|
D|-----------------------------------------------|
A|-----------------------------------------------|
E|-----------------------------------------------|

e|-------------------------------------------------|\
B|-12-12-12----12-12-12----14-14----14-14----14----| \
G|----------11----------11-------11-------11----11-|  \ x2
D|-------------------------------------------------|  /
A|-------------------------------------------------| /
E|-------------------------------------------------|/

e|-----7-------7-----------7------|\
B|-5-5---5-5-5---------7-----7----| \
G|---------------4-4-4---4-----4--|  \x3
D|--------------------------------|  /
A|--------------------------------| /
E|--------------------------------|/

Articoli correlati

  • Working Class HeroWorking Class Hero John Lennon la interpretò da solo, con la sua voce accompagnata da semplici accordi di chitarra. I Green Day l'hanno riarrangiata in chiave più rock, ma il pezzo rimane sempre […]
  • HolidayHoliday Green Day Holiday Intro Riff x4 Main Riff w/Intro Riff x2 Em C G D Hear the sound of the falling rain, Em C G […]
  • 21 Guns21 Guns 21 Guns è una canzone del 2009, secondo singolo estratto dall'album dei Green Day 21st Century Breakdown. Ha riscosso un discreto successo commerciale (quindicesimo in classifica […]
  • Wake Me Up When September EndsWake Me Up When September Ends Brano lento e molto riflessivo, Wake Me Up When September Ends è il quarto singolo estratto da American Idiot, album del 2004 contro l'America, le sue guerre e le sue […]
  • Time Of Your LifeTime Of Your Life Green Day Time Of Your Life Guitar Chords Tab Lyrics Accordi Verse 1: G C9 Dsus4 G Another turning point a fork stuck in the road G C9 Dsus4 […]

L'autore del post

Foto dell'autore
Alberto Moneti
31 anni; pianista dall'età di 8 anni, organista, percussionista, chitarrista, ha conseguito la licenza in teoria musicale e solfeggio al Conservatorio Cherubini di Firenze. Fondatore di Accordiespartiti.it, operatore di marketing online e SEO.
Green Day