Traspositore
0
Semplifica
Testo
Auto-scroll
Traspositore
0
Semplifica accordi
Dimensioni Testo
0
Auto-scroll
Video-Corso per Imparare a Suonare la Chitarra da Zero. Clicca qui.

The Trooper: Chords

INTRO AND OUTRO:

Guitar I
|---------------------------------------------------------|
|---------------------------------------------------------|
|---------------------------------------------------------|
|------------------------------------------------5--------|  x4
|--(7)--7--7-5-----5--5--5-3-----3--3--3-1-----5---5--7---|
|--------------7-------------5-------------3--------------|
Guitar II, on 3rd and 4th repeat
|---------------------------------------------------------|
|---------------------------------------------------------|
|---------------------------------------------------------|
|--(5)--5--5-4-----4--4--4-2-0---2--2--2-0-----4-5-4--5---|
|--------------7---------------------------3--------------|
|---------------------------------------------------------|
MAIN RIFF:
Guitar I
|------------------7----------------------------------------|
|--8--7h8p7h8p7h8-----8--7h8p7h8p7h8--8-----------8---------|
|----------------------------------------9--9~--7---7--9~---|
|-----------------------------------------------------------|
|-----------------------------------------------------------|
|-----------------------------------------------------------|
Guitar II
|-----------------------------------------------------------|
|-----------------------------------------------------------|
|--------------------7--------------------------------------|
|--9--7h9p7h9p7h9-----9--7h9p7h9p7h9--9---------------------|
|---------------------------------------10-10~--9-10-9-10~--|
|-----------------------------------------------------------|
VERSE:
E5      D  G  D   E5          D  G  D   C5          D  G  D
|-----------------------------------------------------------------|
|-----------------------------------------------------------------|
|-----------------------------------------------------------------|
|---9-------7--5--7---9---9-------7--5--7---5---5-------7--5--7---|
|---7-------5--5--5---7---7-------5--5--5---3---3-------5--5--5---|
|---0---------------------0--------------------(0)----------------|
CHORUS:
Oh, Oh,...          Oh
Guitar I
|-----------------------------------------------------------------|
|---7-------------------------------------------------------------|
|---7-------------------9-----------------------------------------|
|---7-------------------9-----------------------------------------|
|---5-------------------7-----------------------------------------|
|-----------------------0-----------------------------------------|
Guitar II
|---2-------------------------------------------------------------|
|---3-------------------------------------------------------------|
|---2-------------------9-----------------------------------------|
|---0-------------------9---2----2-0-2----2-0-2----2-0-2----------|
|---0-------------------7---2----2-0-2----2-0-2----2-0-2----------|
|---------------------------0----0---0----0---0----0---0-etc------|
RHYTHM FOR SOLO'S:
Gtr II E(m)-D-B(m)-C-D (Solo 1)   Gtr I A(m)-G-Em-F-G (Solo 2)
|--------------------------------|--------(3)---0-----(1)----3----|
|--------(7)---------(5)----(7)--|---------3----0------1-----3----|
|---9-----7-----4-----5------7---|---2-----4----0------2-----4----|
|---9-----7-----4-----5------7---|---2-----5----2------3-----5----|  x4 each
|---7-----5-----2-----3------5---|---0-----5----2------3-----5----|
|--(0)---------------------------|--------------0-----(1)---------|
Solo 1 (Guitar I):
E5                             D5
|------------12--------12--------------------------|
|--15b(17)---15b(17)---15b(17)--r15--12---15~~~----|
|--------------------------------------------------|
|--------------------------------------------------|
|--------------------------------------------------|
|--------------------------------------------------|
B5                                   C5        D5
|------15b(17)~-----15--12-----------------------------------|
|--12--------------------------------------------------------|
|---------------------------15--14--12-----------------------|
|---------------------------------------14b(16)-r14--12------|
|--------------------------------------------------------14--|
|------------------------------------------------------------|
E5                                              D5
|----------------------------------------------------------------|
|--------------12-h15-----------12-h15----------12-h15-----------|
|--14---b(16)----------14b(16)----------14b(16)---------14b(16)--|
|----------------------------------------------------------------|
|----------------------------------------------------------------|
|----------------------------------------------------------------|

|-----------------------------------------------------------------|
|--12-h15----------12-h15----------12-h15----------12-h15---------|
|----------14b(16)---------14b(16)---------14b(16)--------14b(16)-|
|-----------------------------------------------------------------|
|-----------------------------------------------------------------|
|-----------------------------------------------------------------|
B5
|---------------------------------------------------------|
|--12-h15----------12-h15----------12-h15---------12-h15--|
|----------14b(16)---------14b(16)--------14b(16)---------|
|---------------------------------------------------------|
|---------------------------------------------------------|
|---------------------------------------------------------|
C5          D5      E5
|-----------------------------------------15--19p15-h17p15------|
|-------------------------------------/17-------------------17--|
|--14----15--14--12--14--14--12~\-------------------------------|
|---------------------------------------------------------------|
|---------------------------------------------------------------|
|---------------------------------------------------------------|
D5
|---15--19p15-h17p15-----15--19p15-h17p15----15--19p15-h17p15--|
|---------------------17------------------17-------------------|
|--------------------------------------------------------------|
|--------------------------------------------------------------|
|--------------------------------------------------------------|
|--------------------------------------------------------------|
B5
|-----15--19p15-h17p15----15--19p15-h17p15------15--19p15-h17p15--|
|--17------------------17-------------------17--------------------|
|-----------------------------------------------------------------|
|-----------------------------------------------------------------|
|-----------------------------------------------------------------|
|-----------------------------------------------------------------|
D5
C5   *With harmony(see end )

|-------20b(22)--20b(22)--20b(22)--20b(22)r20--20b(22)r20--|
|---14-----------------------------------------------------|
|----------------------------------------------------------|
|----------------------------------------------------------|
|----------------------------------------------------------|
|----------------------------------------------------------|
D5
E5                         Harmony ends *

|--20b(22)r20--20b(22)-----19--20--17--19-----17----------------|
|------------------------------------------20-----19h20--17~~\--|
|---------------------------------------------------------------|
|---------------------------------------------------------------|
|---------------------------------------------------------------|
|---------------------------------------------------------------|
B5                                  C5                  D5
|----------12----------12-----------------------------------------|
|------12------15b(17)-----15--12---------------------------------|
|--/14-----------------------------14b(16)r14--12--14--12---------|
|-----------------------------------------------------------------|
|----------------------------------------------------------14~~---|
|-----------------------------------------------------------------|
Solo 2 (Guitar II):
(D5)   A5                                  G5
|--------5h8p5h8p5h8p5h8p5----------------------------------|
|--5h8----------------------8p5h8p5h8p5h8p5-----------------|
|--------------------------------------------7b(9)-(9)r(8)--|
|-----------------------------------------------------------|
|-----------------------------------------------------------|
|-----------------------------------------------------------|
E5                      F5   G5
|----------------------------------------------------|
|-----------------------------------------------5h7--|
|--7--6--5-----6--5----------------------------------|
|-----------7--------7-------------------------------|
|-----------------------6--5-------------------------|
|-----------------------------8--5~~-----------------|
A5                                G5
|--------------5h7p5h7p5h7----------------5h7p5h7p5/7--8p7h8p7--|
|--5h7p5h7p5-----------------5h7p5h7p6h8------------------------|
|---------------------------------------------------------------|
|---------------------------------------------------------------|
|---------------------------------------------------------------|
|---------------------------------------------------------------|
E5                                  F5
|----7---10b(12)--10b(12)--10b(12)--(12)r10--8--10~~--8\--|
|--10-----------------------------------------------------|
|---------------------------------------------------------|
|---------------------------------------------------------|
|---------------------------------------------------------|
|---------------------------------------------------------|
G5                          A5
|-----12-----------12--15--12--15--12--12-----------12------|
|-/15-----15b(17)--------------------------15b(17)------15--|
|-----------------------------------------------------------|
|-----------------------------------------------------------|
|-----------------------------------------------------------|
|-----------------------------------------------------------|
G5
|---------------------------------10h12p10------------------------|
|--13--12--13--12--12---------/10-----------10--13b(15)-HOLD BEND-|
|-----------------------------------------------------------------|
|-----------------------------------------------------------------|
|-----------------------------------------------------------------|
|-----------------------------------------------------------------|
E5             F5      G5
|-----------------------------------------|
|--(15)\5/---NH---T-bar-------------------|
|------------12--\-(9)-/-----17b(19)~~~\--|
|-----------------------------------------|
|-----------------------------------------|
|-----------------------------------------|
A5                                    G5
|--------------------------------------------------20b(22)-(22)r20-|
|-----------------------------20b(22)--(22)r20--17-----------------|
|--/17--19b(21)--(21)r19--17---------------------------------------|
|------------------------------------------------------------------|
|------------------------------------------------------------------|
|------------------------------------------------------------------|
E5
|--17-------------------20b(22)--20--19--17-----------------------|
|-----20b(22)-------17----------------------20b(22)---------------|
|---------------------------------------------------20b(23)-r(21)-|
|-----------------------------------------------------------------|
|-----------------------------------------------------------------|
|-----------------------------------------------------------------|
F5             D5 G5 D5
|--------------------------|
|--17\15-------------------|
|---------17--17--14--14\--|
|--------------------------|
|--------------------------|
|--------------------------|
Harmony for Solo 1:

|--14b(15)--14b(15)r14--14b(15)r14--14b(15)r14--14b(15)--|
|--------------------------------------------------------|
|--------------------------------------------------------|
|--------------------------------------------------------|
|--------------------------------------------------------|
|--------------------------------------------------------|

|--12--14-----12----------------------|
|----------15----13--15--12h13--------|
|-------------------------------14~~--|
|-------------------------------------|
|-------------------------------------|
|-------------------------------------|

You take my life but I take yours too
You fire your musket but I run you through
So when you're waiting for the next attack
You'd better stand there's no turning back.

The bugle sounds and the charge begins
But on this battlefield no one wins
The smell of acrid smoke and horses breath
As I plunge on into certain death.

The horse he sweats with fear we break to run
The mighty roar of the Russian guns
And as we race towards the human wall
The screams of pain as my comrades fall

We hurdle bodies that lay on the ground
And the Russians fire another round
We get so near yet so far away
We won't live to fight another day.

We get so close near enough to fight
When a Russian gets me in his sights
He pulls the trigger and I feel the blow
A burst of rounds take my horse below.

And as I lay there gazing at the sky
My body's numb and my throat is dry
And as I lay forgotten and alone
Without a tear I draw my parting groan
Video-Corso per Imparare a Suonare la Chitarra da Zero. Clicca qui.

The Trooper: Video

Tratto dall'album Piece Of Mind, The Trooper venne rilasciato come singolo dagli Iron Maiden nel 1983. La canzone, scritta dal bassista Harris, riguarda la battaglia di Balaclava (1854), durante la Guerra di Crimea, ed è ispirata ad un poema del poeta inglese Alfred Tennyson.

Articoli correlati

  • Speed of LightSpeed of Light Intro: SOL5 DO5/SOL SOL5 MI5 Another time another place FA5 SOL5 A hollow universe in space MI5 I took a trip to see the sights […]
  • Phantom Of The OperaPhantom Of The Opera Intro: FAm LAb […]
  • Wasted YearsWasted Years Intro: MIm RE MIm RE From the coast of gold, across the seven seas MIm RE I'm travellin' on, far and […]
  • Aces HighAces High Intro (Slightly muted): FA#m RE MI FA#m RE MI FA#m RE MI FA#m RE MI Gtr.1 e|------------------| -----------------| B|------------------| […]
  • Hallowed Be Thy NameHallowed Be Thy Name Intro: | […]

L'autore del post

Foto dell'autore
Alberto Moneti
33 anni, polistrumentista: pianoforte, chitarra, batteria, clarinetto. Ha conseguito la licenza in teoria musicale e solfeggio presso il Conservatorio Cherubini di Firenze. Dal 1997 è organista presso la Basilica di Santa Maria del Sasso, a Bibbiena (AR).
Iron Maiden