Scritta e cantata dal chitarrista Noel Gallagher, The Importance Of Being Idle è una canzone che prende il titolo dall’omonimo libro di Stephen Robins, pubblicato nel 2000, ed è ispirata alla pigrizia dello stesso autore.
E’ stata incisa con l’album degli Oasis Don’t Believe The Truth (2005) e da lì estratta come secondo singolo, eletto dalla rivista Q Magazine come il migliore dell’anno.
Lo stile del brano strizza l’occhio al pop-rock dei Kinks.

Testo con accordi e tablatura per chitarra.

Importance Of Being Idle Oasis Testo Lyrics Accordi per Chitarra Tablatura Guitar

Intro: Am, E, Am E, Am, E, Am, E, Am

{Verses: Am, Fmaj7, C, B7, E}

  Am                    Fmaj7
I sold my soul for the second time
         C             B7   E
cos the land, it don't pay me
   Am                    Fmaj7
i begged my landlord for some more time
          C                 B7  E
he said "son, the bills are waiting"
    Am                       Fmaj7
my best friend called me the other night
          C           B7  E
he said "man, are you crazy?"
    Am                    Fmaj7
my girlfriend told me to get a life
          C           B7  E
she said boy, are you lazy

Dm           Am
  But i don't mind
    Dm                                Am
as long as there's a bed beneath the stars that shine
Dm      Am
I'll be fine
        Fmaj7
If you give me a minute, a man's got a limit
   G                       E		E7
I can't get a life if my heart's not in it

Solo: Am, Fmaj7, C, B7, E 4x

e|-------------------------------------------------------0---------------|
B|---------5---------13-12-----------------------------5---5-------------|
G|-----5-7---7-5-----------14-12----12-14-12-----7---7-------------------|
D|-7-------------7---------------14----------14----7---------------------|
A|-----------------------------------------------------------------------|
E|-----------------------------------------------------------------------|

e|-------------------------------------------------------0---------------|
B|---------5---------13-12-----------------------------5---5-------------|
G|-----5-7---7-5-----------14-12----12-14-12-----7---7-------------------|
D|-7-------------7---------------14----------14----7---------------------|
A|-----------------------------------------------------------------------|
E|-----------------------------------------------------------------------|

e|---------------------------------------------------------------------------------|
B|------------------------------------------------------------20-------------------|
G|-19b21-b21--21b19-17-17----19b21-b21--21b19-17-17----19b21-----21b19-17----17-16-|
D|------------------------19------------------------19--------------------19-------|
A|---------------------------------------------------------------------------------|
E|---------------------------------------------------------------------------------|

e|-----------------------------------------------------------------------|
B|---------------------------------------20------------------------------|
G|---19b21-b21--21b19-17----17-----19b21----21b19-17----17-19b21---------|
D|-----------------------------19--------------------19------------------|
A|-----------------------------------------------------------------------|
E|-----------------------------------------------------------------------|

Dm           Am
  I don't mind
    Dm                                Am
as long as there's a bed beneath the stars that shine
Dm      Am
  I'll be fine
        Fmaj7
If you give me a minute, a man's got a limit
   G                       E		E7
I can't get a life if my heart's not in it

[Repeat the intro]

   Am                   Fmaj7
I lost my faith in the summertime
        C         B7  E
cos it don't stop raining
    Am                 Fmaj7
The sky all day is as black as night
         C      B7  E
but i'm not complaining
   Am                  Fmaj7
I begged my doctor for one more line
         C        B7  E
he said son words fail me
   Am                   Fmaj7
it ain't no place to be killing time
        C        B7  E
i guess i'm just lazy

Dm           Am
  I don't mind
    Dm                                Am
as long as there's a bed beneath the stars that shine
Dm      Am
  I'll be fine
        Fmaj7
If you give me a minute, a man's got a limit
   G                       E		E7
I can't get a life if my heart's not in it

Repeat the intro and cut off the last Am

[Oasis]

Articoli correlati

  • Stop Crying Your Heart OutStop Crying Your Heart Out Rilasciato come secondo singolo dall'album degli Oasis Heathen Chemistry del 2002, Stop Crying Your Heart Out ha raggiunto il secondo posto delle classifiche inglesi ed ha […]
  • Champagne SupernovaChampagne Supernova Champagne Supernova è la traccia di chiusura del fortunatissimo album degli Oasis What's The Story Morning Glory?, del 1995. Il singolo è stato rilasciato solo in Australia, […]
  • Stand By MeStand By Me Scritta da Noel Gallagher, Stand By Me è stato il secondo singolo rilasciato dal terzo album studio degli Oasis, Be Here Now. Il testo prende spunto da un intossicamento […]
  • The Hindu TimesThe Hindu Times Composta da Noel Gallagher, The Hindu Times è la prima canzone rilasciata come singolo dall'album degli Oasis Heathen Chemistry, nel 2002. Il testo, anch'esso scritto dallo […]
  • Don’t Look Back In AngerDon’t Look Back In Anger Pubblicata nel 1995 con l'album (What's The Story) Morning Glory?, Don't Look Back In Anger è uno dei classici del repertorio degli Oasis. Scritta dal chitarrista Noel Gallagher, […]

L'autore del post

Foto dell'autore
Alberto Moneti
31 anni; pianista dall'età di 8 anni, organista, percussionista, chitarrista, ha conseguito la licenza in teoria musicale e solfeggio al Conservatorio Cherubini di Firenze. Fondatore di Accordiespartiti.it, operatore di marketing online e SEO.
Oasis