Traspositore
0
Semplifica
Testo
Auto-scroll
Traspositore
0
Semplifica accordi
Dimensioni Testo
0
Auto-scroll
Video Stampa Segnala

The Kids Aren’t Alright: Chords

Chitarra solista: Impara a suonare gli Assoli di Chitarra
Intro:
e|-------------------------------------------------
B|-------------------------------------------------
G|-------------------------------------------------
D|-----6-----6-----6--5-5-5/6------6-----6-5-5-5\6-
A|-8-8-8-8-8-8-8-8-8--8-8-8-8--4-4-4-4-4-4-4-4-4-4-
E|-------------------------------------------------

e|---------------------------------------
B|---------------------------------------
G|---------------------------------------
D|-----5----5----5-5-5/6---8--6--5-5-5/6-
A|-6-6-6-6-6-6-6-6-6-6/6---6--6--6-6-6/6-
E|---------------------------------------

Riff:
e|------------------------------------------------
B|------------------------------------------------
G|------------------------------------------------
D|------------------------------------------------
A|-1--1--1/3--3/4------3-4----------3-4-6-4--3/4--
E|----------------2--2-----4--4-4/6---------------

SIbm SOLb When we were young the future was so bright (whoa) REb The old neighborhood was so alive (whoa) LAb And every kid on the whole damn street (whoa) was gonna make it big in every beat. SIbm SOLb Now the neighborhood's cracked and torn (whoa) REb The kids are grown up but their lives are worn(whoa) How can one little street LAb Swallow so many lives? SIbm SOLb Chances thrown, nothing's free REb LAb Longing for, used to be SIbm SOLb Still it's hard, hard to see REb LAb Fragile lives, shattered dreams Go! SIbm SOLb REb LAb SIbm SOLb REb LAb SIbm SOLb Jamie had a chance, well she really did (whoa) REb Instead she dropped out and had a couple of kids (whoa) LAb Mark still lives at home cause he's got no job (whoa) He just plays guitar, smokes a lot of pot SOLb SOLb Jay committed suicide (whoa) REb Brandon OD'd and died (whoa) What the hell is going on? LAb Cruelest dream, reality SIbm SOLb Chances thrown, nothing's free REb LAb Longing for, used to be SIbm SOLb Still it's hard, hard to see REb LAb Fragile lives, shattered dreams Go! SIbm SOLb REb LAb SIbm SOLb REb LAb SIbm SOLb Chances thrown, nothing's free REb LAb Longing for, used to be SIbm SOLb Still it's hard, hard to see REb LAb Fragile lives, shattered dreams SIbm
Chitarra solista: Impara a suonare gli Assoli di Chitarra

Credits

Autore: HOLLAND BRYAN KEITH
Copyright: © UNDERACHIEVER MUSIC, ROUND HILL WORKS, WARNER MUSIC PUBLISHING ITALY S.R.L.
 

The Kids Aren’t Alright: Video

The Kids Aren't Alright è una canzone incisa su Americana (1998), quinto album studio degli Offspring, e da lì poi estratta come terzo singolo. Il titolo è un chiaro riferimento a "The Kids Are Alright", canzone del 1966 dell'album My Generation degli Who. E' contenuta anche nel Greatest Hits uscito nel 2005, e nonostante un successo commerciale non eccelso al tempo, è considerata ad oggi la canzone più ascoltata degli stessi Offspring.

Articoli correlati

 The Offspring: Vedi tutte le canzoni
Want You Bad

Intro / Riff: MI5 SI5 SI5 LA5 LA5 DO#5 SI5 MI5 SI5 SI5 LA5 LA5 DO#5 SI5 MI5 SI5 SI5 LA5 LA5 DO#5 SI5 MI5 […]

Come Out and Play
Come Out and Play è un brano composto e inciso dai The Offspring, contenuto nell'album Smash pubblicato nel 1994. Terzo...
Hit That
Hit That è un brano composto e inciso dai The Offspring, contenuto nell'album Splinter pubblicato nel 2003. Settimo lav...
Can’t Repeat
Can't Repeat è il singolo promotore del primo Greatest Hits degli Offspring, rilasciato nel 2005. Ispirato ad i suoi tr...
Self Esteem
Self Esteem è un brano scritto e inciso dai The Offspring, contenuto nell'album Smash pubblicato nel 1994. Terzo lavoro...

L'autore del post

Foto dell'autore
Alberto Moneti
34 anni, polistrumentista: pianoforte, chitarra, batteria, clarinetto. Ha conseguito la licenza in teoria musicale e solfeggio presso il Conservatorio Cherubini di Firenze. Dal 1997 è organista presso la Basilica di Santa Maria del Sasso, a Bibbiena (AR).