Estratta da A Kind Of Magic, album del 1986, One Vision era stata composta in seguito alla memorabile esibizione al Live Aid del 1985 ed all’euforia che quell’evento aveva suscitato nei membri del gruppo. Nel pezzo da studio, la prima cosa che si nota è una voce distorta, cupa e pressochè incomprensibile che apre la canzone: in realtà, se ascoltato molto velocemente si possono udire le parole “God works in mysterious ways… mysterious ways…” (Dio opera in modo misterioso).
Nell’ultimo verso del testo invece, sono state sotituite le parole “One Vision” con “Fried chicken” (pollo fritto), questo perchè il giorno della registrazione della canzone i Queen avevano appunto pollo fritto per pranzo e non disdegnarono l’idea di fare una piccola parodia della loro stessa canzone.

Queen One Vision Tablatura per Chitarra Guitar Tab

GUITAR 1 (ALL THE WAY THROUGH)
e|-----------------------------------|
B|-----------------------------------|
G|---7\-6-7-7-4-5-5-4-5-5-4-5-5-6-7\-|
D|---7\-6-7-7-4-5-5-4-5-5-4-5-5-6-7\-| X 2 (BACK IN AFTER SOLO)X4
A|---5\-4-5-5-2-3-3-2-3-3-2-3-3-4-5\-|
E|-----------------------------------|

GUITAR 2 (AFTER GUITAR 1 PLAYS THIS ONCE)(ALL THE WAY THROUGH AGAIN)
e|-------------------------------|
B|-------------------------------|
G|--7---7-7---5-5---5-5-----7-7--|
D|--7-7-7-7-5-5-5-5-5-5-7-7-7-7--|X5
A|--5-7-5-5-5-3-3-5-3-3-7-7-5-5--|
E|----5-----3-----3-----5-5------|

GUITAR 1 tap solo
e|----------------------------------------------------------------------------|
B|-12b13-t13p11t13p10t13p9t13p8-----------------------------------------------|
G|-----------------------------t12p11t12p10t12p8------------------------------|
D|----------------------------------------------t12p10t12p8-------------------|X 1
A|---------------------------------------------------------t12p10t12p8t10p6---|
E|-------------------------------------------------------------------------8\-|

(CARRY ON VERSE)

GUITAR 2
e|---------------|
B|---------------|
G|---------5-5-5-|X 1 --THEN DROP OUT
D|---5-3---5-5-5-|
A|---5-3---3-3-3-|
E|---3-1---------|

GUITAR 1
e|---------------------------------------------------------------------------|
B|---------------------------------------------------------------------------|
G|---------------------------------------------------------------------------|
D|---------------------------------------------------------------------------|
A|--------5---------5---3-3-3-3-3-3---0-1-2-3-4------------------------------|
E|---5---------5-------------------------------------------------------------|
X 1 THEN BACK TO BEGINING AND REPEAT ONCE

D A D D   G C C   G G   C C   A D

D      A   D          G  C  G  C      A  D
One man,      one goal,            one mission,
One heart, one soul, just one solution,
One flash, of light, yeah one god one vision.

A               D/A
One flesh, one bone,
                  A
one true religion,
                D/A
One voice, one hope,
                  C
One real decision.
   C7sus4  C                A G C A     
Oooooooo, gimme one vision.

No wrong, no right,
I'm gonna tell you there's no black and no white,
No blood, no stain,
All we need is one world wide vision.

One flesh, one bone,
one true religion,
One voice, one hope,
One real decision.
Oooooooo, gimme one vision.

D         G
I had a dream,
            D7
When I was young,
             G      C     D
A dream of sweet illusion,
              G
A glimpse of hope and unity,
     D7                  G 
And visions of one sweet union,
       Bb 
But a cold wind blows,
       Dm 
And a dark rain falls,
           Bb
And in my heart it shows,

 Dm                            Bb    Dm 
Look what they've done to my dream.

    D                 A   D
So give me your hands,
                     G
Give me your hearts,
     C
I'm ready,
             G      F
There's only one direction,

D         A   D            G  C  G  C  G
One world,      one nation,

Yeah one vision.

No hate, no fight,
Just excitation,
All through the night,
        D            A  D     A    G  D
It's a celebration  oooooooo yeah.

One flesh, one bone,
one true religion,
One voice, one hope,
One real decision.
Gimme one night,
Gimme ione hope,
One man, one man,
One bar, one night,
One day, hey hey,
Just gimme, gimme, gimme
One vision (you can put here "Fried chicken" if you want :D)

Articoli correlati

  • InnuendoInnuendo Innuendo è la traccia d'apertura dell'omonimo album dei Queen, del 1991. Scritta principalmente da Freddie Mercury, Innuendo è ritenuta una delle canzoni più oscure del […]
  • Don’t Stop Me NowDon’t Stop Me Now Don't Stop Me Now è un celeberrimo singolo dei Queen, contenuto nel loro settimo album studio, del 1978, dal titolo Jazz. Scritta da Freddie Mercury, è un brano che verte […]
  • I Want To Break FreeI Want To Break Free Scritta dal bassista John Deacon e pubblicata nell'album dei Queen The Works del 1984, I Want To Break Free oltre che per la canzone di per se' e per il successo che questa […]
  • Too Much Love Will Kill YouToo Much Love Will Kill You Too Much Love Will Kill You è una canzone scritta ed incisa dal chitarrista dei Queen Brian May nel 1988. Apparì per la prima volta nel 1992 nel suo album solista Back To The […]
  • Let Me LiveLet Me Live Let Me Live è la terza traccia dell'album Made In Heaven, pubblicato dai Queen nel 1995 a distanza di tre anni e mezzo dalla morte del vocalist nonché leader Freddie Mercury. Ciò […]

L'autore del post

Foto dell'autore
Alberto Moneti
31 anni; pianista dall'età di 8 anni, organista, percussionista, chitarrista, ha conseguito la licenza in teoria musicale e solfeggio al Conservatorio Cherubini di Firenze. Fondatore di Accordiespartiti.it, operatore di marketing online e SEO.
Queen