If I Ever Leave This World Alive è una delle canzoni di spicco di Drunken Lullabies (2002), uno degli album di maggior successo dei Flogging Molly. E’ la quarta traccia del disco, un pezzo acustico molto grazioso, meno punk ma pur sempre folk e anche molto malinconico.
E’ stato usato come colonna sonora del film del 2007 P.S. I Love You, con Hillary Swank, e per alcuni episodi di telefilm quali Weeds e The Shield.

If I Ever Leave This World Alive: testo, accordi e tablatura, con trasposizione per chitarra del breve riff di mandolino.

Flogging Molly If I Ever Leave This World Alive Testo Accordi Tablatura per Chitarra Chords

Intro:

  D      A         D
|-10---7-5---------14---12-10---------|
|-------------------------------------|
|-------------------------------------|
|-------------------------------------|
|-------------------------------------|
|-------------------------------------|

D
If I ever leave this world alive,
G                                 D
I'll thank ya' for things you did in my life.

If I ever leave this world alive,
G                                      D
I'll come back down and sit beside your feet tonight.
A
Wherever I am, you'll always be.
Bm         G
More than just a memory.
D               A       D
If I ever leave this world alive.

D
If I ever leave this world alive,
G                                    D
I'll take on all the sadness, that I left behind.

If I ever leave this world alive,
G                              D
The madness that you feel will soon subside.
A
So in a word, don't shed a tear.
Bm                    G
I'll be here when it all gets weird.
D     A                  D     A
If I ever leave this world alive.

*Bridge: Guitar 1 strums chords above (Verse).
Guitar 2 (Electric) plays the solo.

D         G       D                         G         D
|------------------------------------------5-5/10----7-7/5-----3-2-|
|-------------------------------------7----------------------------|
|-0/7-------7---4-4-2-----0---------0/7----------------------------|
|---------9-----------------4--------------------------------------|
|------------------------------------------------------------------|
|------------------------------------------------------------------|

A
|-2-3-2-0-----------------------------|
|-------------------------------------|
|-------------------------------------|
|-------------------------------------|
|-------------------------------------|
|-------------------------------------|
So when in doubt, just call my name

Bm            G
|-0-2-0--------------------------|
|-------3------------------------|
|--------------------------------|
|--------------------------------|
|--------------------------------|
|--------------------------------|
Just before you go insane

D               A
If I ever leave this world
Bm           G
Hey, I may never leave this world
D               A       D   A
But if I ever leave this world alive...she says
D
I'm okay, I'm alright
Bm           G
Though you have gone from my life
D
You said that it would,
A
Now everything should,
D    A
Be alright
D
She says, I'm okay!

I'm alright!
Bm           G
Though you have gone from my life.
D
You said that it would,
A
Now everything should,
D
Be alright.
A                 D
Yeah, should be alright.

Outro:
D A
D  A  D
D  A  D

Articoli correlati

  • Drunken LullabiesDrunken Lullabies Drunken Lullabies è la traccia d'apertura e title-track dell'omonimo album dei Flogging Molly, pubblicato nel 2002. Ne è stato rilasciato il singolo e prodotto il videoclip, […]
  • Whistles The WindWhistles The Wind Whistles The Wind è una ballata in stile folk dei Flogging Molly, incisa come quinta traccia del loro album del 2004 Within A Mile Of Home. L'album ha raggiunto la vetta della […]
  • Un Disco All’Anno: 2003Un Disco All’Anno: 2003 The White Stripes - Elephant Ridurre questo album alla sola hit mondiale "Seven Nation Army" è a dir poco riduttivo. Qui di carne al fuoco ce n'è in abbondanza, il duo […]
  • Born To Be AliveBorn To Be Alive Born To Be Alive è un classico della canzone disco-pop, composto ed inciso nel 1978 dal francese Patrick Hernandez. Il singolo, title-track dell'eponimo album, ha spopolato nel […]
  • Un Disco All’Anno: 2006Un Disco All’Anno: 2006 Arctic Monkeys - Whatever People Say I Am, That's What I'm Not Oltre a frantumare record di vendite, il disco di debutto degli Arctic Monkeys è una vera e propria bomba a […]

L'autore del post

Foto dell'autore
Alberto Moneti 31 anni; pianista dall'età di 8 anni, organista, percussionista, ha conseguito la licenza in teoria musicale e solfeggio al Conservatorio Cherubini di Firenze. Fondatore di Accordiespartiti.it, operatore di marketing online e SEO.