The Strokes You Only Live Once Guitar Chords Lyrics Accordi

E                   B
Uuuuhhh  Uuuuhhhhh  Uuuuhhhh Uhhhhhh
F#                               E
Some people think they're always right
E                    B
Others are quiet and uptight
F#                        E
Others they seem so very nice nice nice nice nice oh oh
B
Inside they might feel sad and wrong
F#                      E
Oh no 29 different attributes
B
And only 7 that you like
F#                       E
oh oh 20 ways to see the world Oh oh
B
Or 20 ways to start a fight
F#
Oh don't dont don't get up!
C# E F#
B      F#       E
I can't see the sunshine
C#      E       F#
I'll be waiting for you baby
B F# E
C#    E F#
Sit me down
B F#    E
Shut me up
C#    E   F#
I'll calm down
B            F#    E
And I'll get along with you

SOLO  

E||--------------------------------------------------|
B||--12b(15)r12-11------7----------------------------|
G||-----------------13—-9b(11)(11)-9-----------------|
D||----------------------------------9-9/13-13-11-9--|
A||--------------------------------------------------|
E||--------------------------------------------------|

E||--11--9-------------------------------------------|
B||--------11b(12)11---9-----------------------------|
G||-------------------11b(13)(13)11------------------|
D||---------------------------------9-9/14-14-13-9---|
A||--------------------------------------------------|
E||--------------------------------------------------|

E||--12--11--------------------12-----12-----9---11-11-9---------------|
B||---------14—10b(11)10--10-14--14-12--12-11-11---------12--11-////5---|
G||--------------------------------------------------------------------|
D||--------------------------------------------------------------------|
A||--------------------------------------------------------------------|
E||--------------------------------------------------------------------|

Articoli correlati

  • Last NiteLast Nite The Strokes Last Nite Guitar Tab Chords Accordi Intro: C F G Verse: C Dm G Em Dm Chorus: F G C Last night she said Dm Oh, Baby, I feel so down G Oh, and […]
  • JuiceboxJuicebox The Strokes Juicebox Guitar Tab Chords Lyrics Accordi Bass Riff […]
  • SomedaySomeday Tratto dall'album Is This It (2001), Someday è un singolo rilasciato nello stesso anno dagli Strokes. Notevole è il videoclip della canzone, che "accostava" gli esordienti […]
  • ReptiliaReptilia Reptilia è un brano degli americani The Strokes che prende il titolo dal cervello rettiliano, il nucleo più interno del nostro cervello adibito al controllo delle emzioni più […]

L'autore del post

Foto dell'autore
Alberto Moneti 31 anni; pianista dall'età di 8 anni, organista, percussionista, ha conseguito la licenza in teoria e solfeggio al Conservatorio Cherubini di Firenze. Webmaster, operatore di marketing online e SEO. Twitter @albertomoneti