Lonely Day è un singolo estratto dal quinto album studio dei System Of A Down, Hypnotize, nel 2005. E’ una power ballad molto malinconica scritta e cantata dal chitarrista del gruppo, Daron Malakian, e arricchita da un assolo unico nel suo genere. Ha ottenuto una nomination ai 49esimi Grammy Awards come Miglior Performance Hard Rock, vinta però poi dai Wolfmother.
Curiosità: la canzone è stata criticata da alcuni media per la grammatica del testo nel ritornello, in cui viene usato un insolito doppio superlativo “most loneliest”.

Testo e accordi + spartito per pianoforte da scaricare gratis + tablatura per chitarra.

System Of A Down Lonely Day Testo Accordi Lyrics Chords

Verse 1 :

Am     F           C       E
Such a lonely day, and its mine
Am       F                 C    E
The most lonliest day of my life
Am     F           C         E
such a lonely day, should be banned
Am    F               C     E
Its a day that I cant stand

Chorus 1 :

Am       F                  C    E
The most lonliest day of my life
Am       F                  C    E
the most lonliest day of my life

Verse 2:

Am     F          C          E
such a lonely day, shouldn't exist
Am    F                   C      E
its a day that i'll never miss
Am     F                  C       E
such a lonely day, and its mine
Am       F                  C    E
the most lonliest day of my life

Chorus 2 :
F          E  G       Am
and if you go, I wanna go with you
F          E   G       Am
and if you die, I wanna die with you
F             E
take your hand and walk away

Solo

End :

Am       F                  C    E
The most lonliest day of my life         x3

Am     F           C       E
Such a lonely day, and its mine
Am    F                      C      E
Its a day that I'm glad I survived

System Of A Down Lonely Day Tablatura per Chitarra Guitar Tab

Intro/Verse
|-------------------------------------------------|x6
|-------1-----------0-----------1-----------0-----|
|-----2---2-------2---0-------0---0-------1---1---|
|---2-------0---0-------0---2-------0---2-------2-|
|-0-----------------------3-----------------------|
|-------------1-----------------------0-----------|

Pre-Solo
|--------------------------------|x2
|-13-13-13-12~-15-15-15-17-15----|
|-----------------------------17-|
|--------------------------------|
|--------------------------------|
|--------------------------------|

|-----------------------|
|-13~-13-12-12-17-17-17-|
|-----------------------|
|-----------------------|
|-----------------------|
|-----------------------|

[System Of A Down]

Solo
|-----------------------------------------------------------------|
|-----------------------------------------12----------13----------|
|-17~17~17-16-14-12-14-12~h14-16-14----14----14----14----14----14-|
|-----------------------------------14----------14----------14----|
|-----------------------------------------------------------------|
|-----------------------------------------------------------------|

----------------------------------------------------|
-15----------17-18-17-15----15----------------------|
----14----14-------------17----17-16-17-16-17-16----|
-------14----------------------------------------17-|
----------------------------------------------------|
----------------------------------------------------|

Fast tapping!
R=tap with right finger
L=tap with left finger                            R     L     R     L
-17-17-17-17-17-17-17-17-17-17-17-17-17-17-17\15-17-15-17-15-17-15-17-|
----------------------------------------------------------------------|
----------------------------------------------------------------------|
----------------------------------------------------------------------|
----------------------------------------------------------------------|
----------------------------------------------------------------------|

R    L         R     L     R     L     R     L        R     L     R
-15-17-15-17-15\13-15-13-15-13-15-13-15-13-15-13-15-13\12-13-12-13-12-13-|
-------------------------------------------------------------------------|
-------------------------------------------------------------------------|
-------------------------------------------------------------------------|
-------------------------------------------------------------------------|
-------------------------------------------------------------------------|

L     R     L        R     L     R      L    R   L    R   L    R   L
-12-13-12-13-12-13-12\10-12-10-12-10-12-10\7-8-7-10-7-8-7-12-7-8-7-10-7-8-|
--------------------------------------------------------------------------|
--------------------------------------------------------------------------|
--------------------------------------------------------------------------|
--------------------------------------------------------------------------|
--------------------------------------------------------------------------|

R   R   L R   L  R   L R   L  R   L R   L
-7-12-7-8-5-7-8-5-7-10-5-7-8-5-7-12-5-7-8-5-7-------------------------------|
----------------------------------------------13-13-15-17-15-13-13-13-15-17-|
----------------------------------------------14-14-14-14-14-14-14-14-14-14-|
----------------------------------------------------------------------------|
----------------------------------------------------------------------------|
----------------------------------------------------------------------------|

|---------------------------------------17-|
|-15-[13-15-17-18-17-15-13-x4]-13-15-17----|
|-14-[14-14-14-14-14-14-14---]-14-14-14----|
|------------------------------------------|
|------------------------------------------|
|------------------------------------------|

[System Of A Down]

Articoli correlati

  • AerialsAerials Aerials è la quattordicesima ed ultima traccia di Toxicity, uno degli album più significativi della carriera musicale dei System Of A Down, pubblicato nel 2002. Fu estratta come […]
  • Chop Suey!Chop Suey! Chop Suey! è il primo singolo estratto da Toxicity, il secondo album dei System Of A Down pubblicato nel 2001. Lo stesso album si trovava al primo posto delle classifiche […]
  • ToxicityToxicity Toxicity è una delle canzoni più famose del repertorio dei System Of A Down, pubblicata nel 2001 nell'omonimo album e rilasciata l'anno successivo come singolo. E' stata […]
  • Won’t Go Home Without YouWon’t Go Home Without You Won't Go Home Without You è il terzo singolo dell'album It Won't Be Soon Before Long, seocondo album studio dei Maroon 5 del 2007. Rilasciato l'anno successivo non ha ricevuto il […]

L'autore del post

Foto dell'autore
Alberto Moneti 31 anni; pianista dall'età di 8 anni, organista, percussionista, ha conseguito la licenza in teoria e solfeggio al Conservatorio Cherubini di Firenze. Webmaster, operatore di marketing online e SEO. Twitter @albertomoneti