Magnolia è un brano scritto e interpretato dai Negrita contenuto nell’album Ehi! Negrita pubblicato nel 2003. Il disco è la prima raccolta di successi per la band di Cortona, riscuotendo un ottimo successo di pubblico, grazie anche a questa canzone, primo di tre inediti, servita da traino. Musicalmente si presenta come una ballata pop dolce e sensuale, senza perdere troppo il sound elettrico che li contraddistingue da sempre. Un grande successo, perfetto per essere suonato con la chitarra.

Testo, Accordi e Tablatura per chitarra.

Negrita Magnolia Accordi per Chitarra Chords Testo Tab

INTRO(x2):
e--------------------------------------
B--------------------------------------
G--------------------------------------
D--11--8-------------------------------
A--9---9---11---8-------9--11--m---9---
E-----------9---9-------9--7---m---7---
   m   I    m   I       A  m       A
   M   M    M   M       M  I       I
e------------------------------------
B------------------------------------
G------------------------------------
D--11--8-----------------------------
A--9---9----11---8----9---6----------
E-----------9----9----9---7----------
   m   I    m    I    A   I
   M   M    M    M    M   M

FA# SOL#m FA# SOL#m

FA#
Lentamente scivola
SOL#m
la tua mano su di te
     FA# 
quel tanto che basta per trasformare
SOL#m
ogni carezza in un gemito
   FA#
Ti guardo accaldata contorcerti
SOL#m
tra le lenzuola umide
  FA#
golosa ed implacabile
SOL#m                 SI7+   SIadd9 SI7+
Forza fammi male finchè vuoi...
   SOL#m
Lo sa_________i


FA#          DO#  
Pioggia io saro'
    SOL#m
per toglierti la sete
  FA#       DO#
E sole saliro'
    SOL#m
per asciugarti bene
FA#         DO#
Vento arrivero'
      SOL#m
per poterti accarezzare
      FA#        DO#
Ma se vuoi se tu vuoi
    SOL#m
Tra fango e neve fango e neve
       FA#
impazziro'

Strumentale intro

     FA#
Ti ammiro per come ti approcci
  SOL#m
A questi anni mutevoli

Mi piace quel tuo senso pratico

La tua forza e l'ironia

I cieli neri intorno a noi

Sono soltanto nuvole

Che dolcemente soffi via
                               SI7+  SI7+/9  SI7+
E niente puo' far male piu' lo sai 
   SOL#m
lo sa_________i

FA#          DO#
Pioggia io saro'
    SOL#m
per toglierti la sete
  FA#       DO#
E sole saliro'
    SOL#m
per asciugarti bene
FA#          DO#
Vento arrivero'
      SOL#m
per poterti accarezzare
       FA#        DO#
Ma se vuoi se tu vuoi
    SOL#m
Tra fango e neve fango e neve
       FA#
impazziro', impazziro'

(assolo)

FA#  SOL#m
e----------------------------------------------------------------
B----------------------------------------------------------------
G------------------------------------------------4/6---6-4-3-3/4-
D---4--6v----4------4------------------------4---6/8---8-6-4-4/6-
A---------------4h6-6--4-----------------4-6---------------------
E------------------------4h6---m-m-m-4h6-------------------------

e-----------4---2-------------4--3/4-----6-7-6----6-4-2-2/4------
B-----------4----------------------------------------------------
G---4-4-3/4-----3---m-m-m-4/6----3/4-----6-8-6----6-4-3-3/4------
D-6--------------------------------------------------------------
A----------------------------------------------------------------
E----------------------------------------------------------------

FA#           DO#
Pioggia io saro'
    SOL#m
per toglierti la sete
  FA#       DO#
E sole saliro'
    SOL#m
per asciugarti bene

Vento arrivero'

per poterti accarezzare

Ma se vuoi se tu vuoi

Tra fango e neve fango e neve

impazziro', impazziro'...

E pioggia io saro'

Yeah yeah yeah...

Per toglierti la sete

per asciugarti bene

per poterti accarezzare

Ma se vuoi se tu vuoi

Articoli correlati

L'autore del post

Foto dell'autore
Alberto Moneti 31 anni; pianista dall'età di 8 anni, organista, percussionista, ha conseguito la licenza in teoria e solfeggio al Conservatorio Cherubini di Firenze. Webmaster, operatore di marketing online e SEO. Twitter @albertomoneti